Artists by letter: A B C D E F G H I J K L M N O P Q R S T U V W X Y Z 0-9

 
Frenetic Tab
-----------------------------------------------------------------------------
                              Frenetic - Washya
-----------------------------------------------------------------------------
Tuning: Standard (EBGDAE)
Intro
E|------------------------------------------------------------|
B|------------------------------------------------------------|
G|------------------------------------------------------------|
D|-5/7777--9/10-10-9-9/10-10-9-7--------10-9-10-9-10-9------|
A|-3/5555--7/-8--8-7-7/-8--8-7-5-5/7777-8--7--8-7--8-7-9/11-|
E|---------------------------------3/5555----------------7/-9-|

Verses
E|--------------------------------------------|
B|--------------------------------------------|
G|--------------------------------------------|
D|-------------------------54-54-54--------|
A|-2-3333-6-5-6-5-3-2-5555-32-32-32-3/5555-|
E|-0-1111-4-3-4-3-1-0-3333-------------1/3333-|

Chorus
E|--------------------------------------------------------|
B|--------------------------------------------------------|
G|--------------------------------------------------------|
D|-5-----------------3-333-------------7/99-8p7-----------|
A|-3-5---7-777-----3-1-111---1-2-2-222-5/77-----9-7-9-999-|
E|-----7-5-555-3-5---------3-----0-000--------------7-777-|
PM   * *       * * *       * * *            ***** *  
 
 
Washya - Frenetic Tab :: indexed at Ultimate Guitar.
Frenetic tabs @ 911Tabs

Quick tip, so you can enjoy Frenetic Tab even more:

After the registration (which takes just 10 seconds, remember?) you will be able to use your profile - your very own piece of YourChords.com.

Show us your talent, perform Frenetic Tab!

Here you can post a video or audio performance. Tell me more ...
Where can we find your performance? Tell me more ...
Your comment:
Please, log in to post your performance.