Artists by letter: A B C D E F G H I J K L M N O P Q R S T U V W X Y Z 0-9

 
Please Do Tab
Credit goes to this site.
http://roxichord.tripod.com/roxichord.html
I'm uploading them all, 
FOR GREAT JUSTICE.

PLEASE DO
by Sam Coomes

Intro:

e|-3-2-------1-0-------|---0--------0-----|
B|---------------------|-2----2--0-1----1-|
G|-----0---0-----0---0-|------------------|  x 2
D|-------0---------0---|------------------|
A|---------------------|-0---0---0----0---|
E|-3-2-------1-0-------|------------------|

e|-3-2-------1-0-------|---0--------0--------0--------0-----|---0------------------|
B|---------------------|-1-----1--2-----2--3-----3--2-----2-|-1-----1------1-------|
G|-----0---0-----0---0-|------------------------------------|----------------0/2-|
D|-------0---------0---|------------------------------------|----------0/2---------|
A|---------------------|-3---3----4---4----5---5----4---4---|-3---3----------------|
E|-3-2-------1-0-------|------------------------------------|----------------------|

Bridge:

Get the rhythm from the record, these are the chords. The second time round 
the Gmaj7 becomes a G7 ie play a 1 (in the brackets) instead of 2

(1)
e|-3--2-----7--8-----5-7-------7-5--|
B|-0--0-----0--0-----5-5-8-----7-7--|
G|-0--0----/7--7-----6-6-6-----7-7--|
D|-0--0----/6--6-----7-7-7-----0-0--|
A|-2--2----/7--7-----0-0-0----------|
E|-3--3-----0--0--------------------|



G     Gmaj7      Em    E7
You never cried, you never froze
    A       Am        D      D7
And yet how well your garden grows - 
    G        Gmaj7  Em     E7
You reap the fruit another sows;
  A      Am  D     D7           back to Bridge
I guess that works out well for you

Suffering has served you well -
Its common, yet it somehow sells
So sing your little song of hell and sell

Hollow hopes and empty dreams
And blind pursuit of worthless schemes - 
Thats all there is to life it seems
Unless you prove me wrong

Bridge again:
Please do

G      B7    F#m   
Please do
Am     C 
Please do    
G    E7    Eb    G
Pleeeease  dooooooo
 
 
Quasi - Please Do Tab :: indexed at Ultimate Guitar.
Please Do tabs @ 911Tabs

Quick tip, so you can enjoy Please Do Tab even more:

After the registration (which takes just 10 seconds, remember?) you will be able to use your profile - your very own piece of YourChords.com.

Show us your talent, perform Please Do Tab!

Here you can post a video or audio performance. Tell me more ...
Where can we find your performance? Tell me more ...
Your comment:
Please, log in to post your performance.