Artists by letter: A B C D E F G H I J K L M N O P Q R S T U V W X Y Z 0-9

 
Geek In The Pink Tab
Author/Artist: Jason Mraz
Title: Geek in the pink
Album: Mr. A-Z (2005)
Transcribed by: omar_frusciante
Email: [email protected]

I modified the tab that i already posted for the live version of this song and 
adjusted it to the studio version.
I did this mostly cos, no one got the intro & the chord in the pre-chorus (D#m/C) 
correctly, in my opinion. 
The rest is pretty close to the other ones..
Please let me know about any correction and comment that you might have. Anything 
to improve the tab is welcome!
Peace.

Standard Tunning

*the C#/A# note is played with only 3 fingers by mraz, but it seems that he presses 2 
strings down with the pinky. I say this, cos it sounds better with the B string included 
(only my opinion...).
*the C#6 can be played also as C# if u want (both sound OK, but u should prefer the C#6; 
mraz mostly does)
*the ways to strum each chord (let ring, staccato, etc) depend on which version you're playing..
* the dashes (-) are trying to give you a slight idea of the timing structure of each part.

CHORDS:

C#/A#   F#  D#m7   C#6    C#    G#    D#m/C   F
    ---   -2-   -6-   -6-   -4-   --4--   ---   -1-
    -6-   -2-   -7-   -6-   -6-   --4--   -4-   -1-
    -6-   -3-   -6-   -6-   -6-   --5--   -3-   -2-
    -6-   -4-   -8-   -6-   -6-   --6--   -4-   -3-
    ---   -4-   -6-   -8-   -4-   --6--   -3-   -3-
    -6-   -2-   ---   ---   ---   -(4)-   ---   -1-

INTRO (you can play this as the verse as well with lil modifications sometimes)
--6----6----6--------(4)------------------------------------------------------|
--6-x5-7-x5-7-x5-6-x2-4-x2-6--------------------------------------------------|
--6----6----8----6----5----6--------------------------------------------------|
--6---------8----6--------(6)-------------------------------------------------|
------------------------------------------------------------------------------|
------------------------------------------------------------------------------|

VERSE 1 (optional to play as intro noticing the strumming here)
-------2----6----6--4---------------------------------------------------------|
--6----2----7----6--4---------------------------------------------------------|
--6----3----6----6--5---------------------------------------------------------|
--6----4----8----6--6---------------------------------------------------------|
-------4----6----8--6---------------------------------------------------------|
--6----2-----------(4)--------------------------------------------------------|

PRE-CHORUS
-------2----6-------1---------------------------------------------------------|
--6----2----7----4--1---------------------------------------------------------|
--6----3----6----3--2---------------------------------------------------------|
--6----4----8----4--3---------------------------------------------------------|
-------4----6----3--3---------------------------------------------------------|
--6----2------------1---------------------------------------------------------|

CHORUS
-------2----6----6--4---------------------------------------------------------|
--6----2----7----6--4---------------------------------------------------------|
--6----3----6----6--5---------------------------------------------------------|
--6----4----8----6--6---------------------------------------------------------|
-------4----6----8--6---------------------------------------------------------|
--6----2-----------(4)--------------------------------------------------------|

INTRO X1

VERSE 2 (optional to play as intro noticing the strumming here)
-------2----6----6--4---------------------------------------------------------|
--6----2----7----6--4---------------------------------------------------------|
--6----3----6----6--5---------------------------------------------------------|
--6----4----8----6--6---------------------------------------------------------|
-------4----6----8--6---------------------------------------------------------|
--6----2-----------(4)--------------------------------------------------------|

PRE-CHORUS
-------2----6-------1---------------------------------------------------------|
--6----2----7----4--1---------------------------------------------------------|
--6----3----6----3--2---------------------------------------------------------|
--6----4----8----4--3---------------------------------------------------------|
-------4----6----3--3---------------------------------------------------------|
--6----2------------1---------------------------------------------------------|

CHORUS
-------2----6----6--4---------------------------------------------------------|
--6----2----7----6--4---------------------------------------------------------|
--6----3----6----6--5---------------------------------------------------------|
--6----4----8----6--6---------------------------------------------------------|
-------4----6----8--6---------------------------------------------------------|
--6----2-----------(4)--------------------------------------------------------|

BRIDGE                                ^
--2---------1----6--6--2----6---------1--1------|
--2----6----1----6--6--2----6----4----1--1------| (^ means staccato)
--3----6----2----6--6--3----6----3----2--2------|
--4----6----3----6--8--4----6----4----3--3------|
--4---(8)---3----8--8--4----8----3----3--3------|
--2----6----1----6--6--2----6---------1--1------|

VERSE 3 (optional to play as intro noticing the strumming here)
                  ^
-------2----()----6--4-----------2----6----6--4-------------------------------|
--6----2----()----6--4------6----2----7----6--4-------------------------------|
--6----3----()----6--5------6----3----6----6--5-------------------------------|
--6----4----()----6--6------6----4----8----6--6-------------------------------|
-------4----()----8--6-----------4----6----8--6-------------------------------|
--6----2------------(4)-(5)-6----2-----------(4)------------------------------|

PRE-CHORUS
--6---2---6~----------------------------------|
--7---2---7~---4--1---------------------------| (~ means let ring)
--6---3---6~---3--2---------------------------|
--6---4---8~---4--3---------------------------|
-------4---6~---3--3---------------------------|
--6---2-----------1---------------------------|

CHORUS (repeat until OUTRO or after last CHORUS play INTRO)
-------2----6----6--4---------------------------------------------------------|
--6----2----7----6--4---------------------------------------------------------|
--6----3----6----6--5---------------------------------------------------------|
--6----4----8----6--6---------------------------------------------------------|
-------4----6----8--6---------------------------------------------------------|
--6----2-----------(4)--------------------------------------------------------|

OUTRO (it may sound weird cos of the effect at the end but that's the chord)
-(6)--------------------------------------------------------------------------|
--6---------------------------------------------------------------------------|
--6---------------------------------------------------------------------------|
--6---------------------------------------------------------------------------|
------------------------------------------------------------------------------|
--6---------------------------------------------------------------------------|
 
 
Jason Mraz - Geek In The Pink Tab :: indexed at Ultimate Guitar.
Geek In The Pink tabs @ 911Tabs

About the artist behind Geek In The Pink Tab:

Jason Thomas Mraz (pronounced /'dʒeɪsən ˈɱɹæz/; born June 23, 1977) is an American singer-songwriter, born and raised in Mechanicsville, Virginia, a suburb of Richmond.[1]

Mraz is an eclectic artist with multiple and varied stylistic influences, including pop, rock, folk, jazz, country, and hip hop. He has played with various artists, including The Rolling Stones, Bob Dylan, Dave Matthews Band, James Blunt, Gavin DeGraw, Paula Cole, John Popper, Alanis Morissette, The Ohio Players, Rachael Yamagata, Jewel and Colbie Caillat.[citation needed]

Indexed at Wikipedia.

Show us your talent, perform Geek In The Pink Tab!

Here you can post a video or audio performance. Tell me more ...
Where can we find your performance? Tell me more ...
Your comment:
Please, log in to post your performance.