Artists by letter: A B C D E F G H I J K L M N O P Q R S T U V W X Y Z 0-9

 
Guilt Trip Tab
D.R.I
GUILT TRIP
EADGBE
*=PALM MUTE
^=HAMMER ON/PULL OFF
V=BAR DIP
/OR=SLIDE

TABBED BY andherembrace

0:04
------------------------------------------------------------------------|
------------------------------------------------------------------------|
---^----^---^----^---^---^---^----^-----^----^---^----^---^---^---^---^-|
-12-0-10-0-9-0-10-0-9-0-7-0-9-0-10-0--12-0-10-0-9-0-10-0-9-0-7-0-9-0-7-0|
------------------------------------------------------------------------|
------------------------------------------------------------------------|

0:08
------------------------------------------------------------------|
------------------------------------------------------------------|
--^---^---^---^---^---^---^---^----^---^---^---^---^---^---^---^--|
-5-0-7-0-8-0-7-0-5-0-8-0-7-0-5-0--5-0-7-0-5-0-3-0-7-0-5-0-3-0-5-0-|
------------------------------------------------------------------|
------------------------------------------------------------------|

0:13
-----------------------------------------------------------------|
-----------------------------------------------------------------|
--^---^---^---^---^---^---^---^---^---^---^---^---^---^---^---^--|
-2-0-3-0-5-0-3-0-2-0-3-0-5-0-3-0-2-0-3-0-2-0-3-0-2-0-3-0-2-0-3-0-|
-----------------------------------------------------------------|
-----------------------------------------------------------------|

0:18
---------------------------------------------------------------|
---___________-----___________------___------___------___------|
--/           ---/           ----/   ----/   ----/   -----|
-2-0-2-0-2-0-2-0-2-0-2-0-2-0-2-0--2-0-2-0--2-0-2-0--2-0-2-0-2|-|
---------------------------------------------------------------|
---------------------------------------------------------------|

0:22
---------------------------------------------------------------|
------------------------------------------_______________------|
-----------------------------------------/               -----|
----------------------------------------2-0-2-0-2-0-2-0-2-0----|
-5-4-2-*-*-2---5-4-2-*-*-3---5-4-2-*-*-------------------------|
-3-2-0-0-0-0---3-2-0-0-0-1---3-2-0-0-0-------------------------|

0:34
-------------------___-----------------------------------------|
-------------^-)--/   ----------------------------------------|
-----------(2)3--2-3-2-0---------------------------------------|
---------------------------------------------------------------|
-5-4-2-***----------------5-4-2--*-*-2--*-*-*-2--*-*-3--*-*-*--|
-3-2-0-000----------------3-2-0--0-0-0--0-0-0-0--0-0-1--1-1-1--|

0:44
---------------------------------------------------------------|
---------___________-------------------------------------------|
--------/           ------------------------------------------|
-------2-0-2-0-2-0-2-0-------7-----10--------------------------|
2--*-*-----------------*-*-*-5--*-*-8-v-5-4-2--*-*-2--*-*-*-2--|
0--0-0-----------------0-0-0-5--0-0-8---3-2-0--0-0-0--0-0-0-0--|

0:56
-----------------------------------------------------|
----------------------___________--------------------|
---------------------/           -------------------|
--------------------2-0-2-0-2-0-2-0-------7-----10---|
*-*-3--*-*-*-2--*-*-----------------*-*-*-5--*-*-8---|
0-0-1--1-1-1-0--0-0-----------------0-0-0-5--0-0-8---|

1:06
----------------------|
----------------------|
----------------------|
----------------------|
-*-5-4-2--*-*-2-----2-|
-0-3-2-0--0-0-0-v---0-|

0:19
--------------------------------------------------|
--------------------------------------------------|
--------------------------------------------------|
-9---------3-------9------------------------------|
-7---3-----1-|-----7--------------/7--p------8----|
-7--1-|-----------7--v----v-----------s-----6|---|

1:34
--------------------------------------------------|
--------------------------------------------------|
--------------------------------------------------|
-22----22----22-----22----------------------------|
-22-**-22-**-22-**--22-**-33-**-33-**-55-**-55-**-|
-00-00-00-00-00-00--00-00-11-11-11-11-33-33-33-33-|

1:38
-------------------------------------------------|
-------------------------------------------------|
-------------------------------------------------|
-2-----2-----2-----2-----------------------------|
-2-***-2-***-2-***-2-***-3-***-333-8-88-**-888---|
-0-000-0-000-0-000-0-000-1-111-111/6-66-66-666---|

1:44
-------------------------------------------------|
-------------------------------------------------|
-------------------------------------------------|
-22----22----22----22----------------------------|
-22-**-22-**-22-**-22-**-33-**-33-**-55-**-55-**-|
-00-00-00-00-00-00-00-00-11-11-11-11-33-33-33-33-|

1:49
-------------------------------------------------|
-------------------------------------------------|
-------------------------------------------------|
-2-----2-----2-----2-----------------------------|
-2-***-2-***-2-***-2-***-3-***-333-8-8888888-----|
-0-000-0-000-0-000-0-000-1-111-111/6-6666666-----|

1:54
-------------------------------------------------------------|
-------------------------------------------------------------|
-------------------------------------------------------------|
-------------------------------------------------------------|
5-4-**-5-4-**-2-*-2-*-*-*-*-*-5-4-**-5-4-**-2-*-2-*-*-*-*-*--|
32-00-32-00-0-0-0-0-0-0-0-0-32-00-32-00-0-0-0-0-0-0-0-0--|

1:59
--------------------------------------------------|
--------------------------------------------------|
--------------------------------------------------|
--------------------------------------------------|
5-4-**-5-4-**-2-*-2-*-*-*-*-*-5-4-**-5-4-**-2-----|
32-00-32-00-0-0-0-0-0-0-0-0-32-00-32-00-0|----|

2:05
-------------------------------------------------|
-------------------------------------------------|
-------------------------------------------------|
-2-----2-----2-----2-----------------------------|
-2-***-2-***-2-***-2-***-3-***-3-***-5-***-5-***-|
-0-000-0-000-0-000-0-000-1-111-1-111-3-333-3-333-|



2:10---------------------------------------------|
-------------------------------------------------|
-------------------------------------------------|
-2-----2-----2-----2-----------------------------|
-2-***-2-***-2-***-2-***-3-***-3-***-5-***-5-***-|
-0-000-0-000-0-000-0-000-1-111-1-111-3-333-3-333-|

2:20
-------------------------------------------------|
-------------------------------------------------|
-------------------------------------------------|
-2-----2-----2-----2-----------------------------|
-2-***-2-***-2-***-2-***-3-***-3-***-8-***-888---|
-0-000-0-000-0-000-0-000-1-111-1-111-6-666-666---|

2:25
--------------------------------------------------------|
--------------------------------------------------------|
-------------------------3-2----------------------------|
-2-----2-----2-----2---------3-5-3-2--------------------|
-2-***-2-***-2-***-2-***-------------3-5-3-2------------|
-0-000-0-000-0-000-0-000---------------------3-5-3-2-3-2|

2:30
--------------------------------------------------------|
--------------------------------------------------------|
-------------------------3-2----------------------------|
-2-----2-----2-----2---------3-5-3-2--------------------|
-2-***-2-***-2-***-2-***-------------3-5-3-2------------|
-0-000-0-000-0-000-0-000---------------------3-5-3-2-3-2|



2:35
------------------------------------------------------|
------------------------------------------------------|
------------------------------------------------------|
------5-4------------------------5-4------------------|
-5-55-3-2-4-5-6-**-5-**-3-*-5-**-3-2-4-5-6-***-6-8-8--|
-3-33-32-2/3-4-44-3-33-1-1-3-33-32-2/3-4-444-4/6-6--|

2:41
------------------------------------------------------|
------------------------------------------------------|
------------------------------------------------------|
------5-4------------------------5-4------------------|
-5-**-3-2-4-5-6-**-5-**-3-*-5-55-3-2-4-5-6-***-6-8-8--|
-3-33-32-2/3-4-44-3-33-1-1-3-33-32-2/3-4-444-4/6-6--|

2:47
------------------------------------------------------|
------------------------------------------------------|
------------------------------------------------------|
------5-4------------------------5-4------------------|
-5-**-3-2-4-5-6-**-5-**-3-*-5-55-3-2-4-5-6-***-6-8-8--|
-3-33-32-2/3-4-44-3-33-1-1-3-33-32-2/3-4-444-4/6-6--|

2:52
------------------------------------------------------|
------------------------------------------------------|
------------------------------------------------------|
------5-4------------------------5-4------------------|
-5-**-3-2-4-5-6-**-5-55-3-*-5-55-3-2-4-5-6-***-6-8-8--|
-3-33-32-2/3-4-44-3-33-1-1-3-33-32-2/3-4-444-4/6-6--|

2:57
-----------------------------------------------------------------|
-----------------------------------------------------------------|
--------------------------------------^------^-----^------^------|
-----2-2-------2-2-------------------2-0----2-0---2-0----2-0-----|
-2---2-2---2---2-2----3---33-5--5--*-----**-----*-----**-----3--8|
-0-|-0-0-|-0-|-0-0-|--1---11-3--3-0-----00-----0-----00-----1-/6|

3:08
-------------------------------------------------|
-------------------------------------------------|
-------------------------------------------------|
-22----22----22----22----------------------------|
-22-**-22-**-22-**-22-**-33-**-33-**-55-**-55-**-|
-00-00-00-00-00-00-00-00-11-11-11-11-33-33-33-33-|

3:13
------------------------------------------------|
------------------------------------------------|
------------------------------------------------|
-22----22----22----22---------------------------|
-22-**-22-**-22-**-22-**-33-**-33-**-88-**-8888-|
-00-00-00-00-00-00-00-00-11-11-11-11-66-66-6666-|

3:18
-------------------------------------------------|
-------------------------------------------------|
-------------------------------------------------|
-22----22----22----22----------------------------|
-22-**-22-**-22-**-22-**-33-**-33-**-55-**-55-**-|
-00-00-00-00-00-00-00-00-11-11-11-11-33-33-33-33-|

3;23
----------------------------------------------|
----------------------------------------------|
----------------------------------------------|
-22----22----22----22-------------------------|
-22-**-22-**-22-**-22-**-33-**-33-**-88888888-|
-00-00-00-00-00-00-00-00-11-11-11-11-66666666-|

3:29
---------------------------------------------------------------|
---------------------------------------------------------------|
---------------------------------------------------------------|
---------------------------------------------------------------|
5-4-**-5-4-**-2-*-2-*-*-*-*-*-5-4-**-5-4-**-2-*-2-*-*-*-*-*----|
32-00-32-00-0-0-0-0-0-0-0-0-32-00-32-00-0-0-0-0-0-0-0-0----|

3:34
--------------------------------------------------|
--------------------------------------------------|
--------------------------------------------------|
--------------------------------------------------|
5-4-**-5-4-**-2-*-2-*-*-*-*-*-5-4-**-5-4-**-2-----|
32-00-32-00-0-0-0-0-0-0-0-0-32-00-32-00-0|----|



3:40
---------------------------------------------------------------|
--------------------------------------------_______________----|
-------------------------------------------/               ---|
--------------------------10--------------2-0-2-0-2-0-2-0-2-0--|
-5--4-2-*-*-2--5--4-2-*-*--8---5--4-2-*-*----------------------|
-3--2-0-0-0-0--3--2-0-0-0--8--3--2-0-0-0----------------------|

3:51
--------------------------------------------------------|
--------------------------------------------------------|
--------------------------------------------------------|
--------------9-----------------------------------------|
-5--4-2-*-*-*-7----5-4-2--*-*-2--*-*-*-2--*-*-3--*-*-*--|
-3--2-0-0-0-0-7-v--3-2-0--0-0-0--0-0-0-0--0-0-1--1-1-1--|



4:02
--------------------------------------------------------------|
---------___________------------------------------------------|
--------/           -----------------------------------------|
-------2-0-2-0-2-0-2-0-------7-----10-------------------------|
2--*-*-----------------*-*-*-5--*-*-8--5-4-2--*-*-2--*-*-*-2--|
0--0-0-----------------0-0-0-5--0-0-8-3-2-0--0-0-0--0-0-0-0--|

4:13
-----------------------------------------------------|
----------------------___________--------------------|
---------------------/           -------------------|
--------------------2-0-2-0-2-0-2-0-------7-----10---|
*-*-3--*-*-*-2--*-*-----------------*-*-*-5--*-*-8---|
0-0-1--1-1-1-0--0-0-----------------0-0-0-5--0-0-8---|



----------------------|
----------------------|
----------------------|
----------------------|
-*-5-4-2--*-*-2-----2-|
-0-3-2-0--0-0-0-v---0-|


 
 
Dirty Rotten Imbeciles - Guilt Trip Tab :: indexed at Ultimate Guitar.
Guilt Trip tabs @ 911Tabs
People who played Dirty Rotten Imbeciles - Guilt Trip Tab also played these songs by Dirty Rotten Imbeciles:
5 Year Plan Tab, Suit And Tie Guy Tab, Happy Happy Joy Joy Tab, I Dont Need Society Tab, Think For Yourself Tab, Thrashhard Tab

About the artist behind Guilt Trip Tab:

Dirty Rotten Imbeciles (also known as D.R.I.) are a thrashcore/crossover thrash band that formed in 1982.

The band never gained any mainstream audience, but were an influence on their contemporaries — most notably Suicidal Tendencies, Corrosion of Conformity, and S.O.D. — alongside whom they are considered the early pioneers of the sound that would later be called crossover thrash. This genre was also coined from their 1987 album of the same title.

Although the band is still active today, D.R.I. have released no new material since their last album, Full Speed Ahead, was released in 1995.

Indexed at Wikipedia.

Show us your talent, perform Guilt Trip Tab!

Here you can post a video or audio performance. Tell me more ...
Where can we find your performance? Tell me more ...
Your comment:
Please, log in to post your performance.