Artists by letter: A B C D E F G H I J K L M N O P Q R S T U V W X Y Z 0-9

 
Lifeline Tab
-----------------------------------------------------------------------------
                         Lifeline - Washya
-----------------------------------------------------------------------------
Tuning: D Standard (DAFCGD)
Intro
D|--------------------|
A|--------------------|
F|--------------------|
G|--------------------|
C|-222-876--543-2-|
D|-000-654--321-0-|
PM ***

Verses
D|----------------------------------------------------------------|
A|----------------------------------------------------------------|
F|----------------------------------------------------------------|
G|----------------------------------------------------------------|
C|-222-----1-222----3p2-222-----1-222---2h3-222-333/555333432-|
D|-000-3p2---000--5-----000-2h3---000-5-----000-111/33311121-|
PM ***       ***        ***       ***       ***

Chorus
D|----------------------------------------------------------|
A|----------------------------------------------------------|
F|----------------------------------------------------------|
G|-------------------------4--------------------------------|
C|-222-----1---5-222---3p2-2-222-----1---3-777/8-55/7-875-|
D|-000-3p2---0h3-000-5-------000-2h3---0h1-555/6-33/5-653-|
PM ***           ***         ***

Solo
D|------------------------------------------17p14h17p14----14-|
A|-----13----13----15~------15----15----17~-------------17----|
F|-/12----12----12------/14----14----14-----------------------|
G|------------------------------------------------------------|
C|------------------------------------------------------------|
D|------------------------------------------------------------|

D|-14h17p14h17p14----------------------------------------------------------|
A|----------------17-14h17p14h17p14----------------------------------------|
F|----------------------------------17-14h17p14h17p14----------------------|
G|----------------------------------------------------17-14h17p14h17p14----|
C|----------------------------------------------------------------------17-|
D|-------------------------------------------------------------------------|

D|-------------------------------------------------------16h19p16----------|
A|---------------------------------------/18p15----15h18----------18p15----|
F|----------------------------------------------16----------------------16-|
G|-----------------------18----18----19~-----------------------------------|
C|-14h17p14h17p14-----17----17----17---------------------------------------|
D|----------------17~------------------------------------------------------|

D|-------16h19p16----------------16h19p16--------------------------------|
A|-15h18----------18p15----15h18----------18p15----------------18--------|
F|----------------------16----------------------16h18h19p18p16----17p16--|
G|-----------------------------------------------------------------------|
C|-----------------------------------------------------------------------|
D|-----------------------------------------------------------------------|

D|--------------18-------18-------18-------18--------------------------|
A|-----------------18-------18-------18-------18p15h18p15h18p15--------|
F|-------16~-16-------16-------16-------16----------------------13p12~-|
C|-17h18---------------------------------------------------------------|
G|---------------------------------------------------------------------|
D|---------------------------------------------------------------------|

D|-----15p14-------17p16-------19p18-------21p20----20----20----21b---|
A|-/12-------12/14-------14/16-------16/18-------19----19----19-20b---|
F|---------------------------------------------------------------------|
C|---------------------------------------------------------------------|
G|---------------------------------------------------------------------|
D|---------------------------------------------------------------------|
 
 
Washya - Lifeline Tab :: indexed at Ultimate Guitar.
Lifeline tabs @ 911Tabs

Quick tip, so you can enjoy Lifeline Tab even more:

After the registration (which takes just 10 seconds, remember?) you will be able to use your profile - your very own piece of YourChords.com.

Show us your talent, perform Lifeline Tab!

Here you can post a video or audio performance. Tell me more ...
Where can we find your performance? Tell me more ...
Your comment:
Please, log in to post your performance.