Artists by letter: A B C D E F G H I J K L M N O P Q R S T U V W X Y Z 0-9

 
The Abandoned Tab
Song: The Abandoned
Artist: Memphis May Fire
Album: The Hollow (2011)

Transcribed by Colton Wood

Tuning: Dropped G# (G#, D#, G#, C#, F, A#)
3 Whole steps down from Dropped D Tuning

Hint: You can often find the durations of Guitar 1 by looking at the 
durations of guitar 2 or guitar 3 or vice versa.

Also, in most instances, guitar 2 is panned to the left 100%. And guitar 3 is 
panned to the right 100%.

LEGEND/KEY

In tab:
  Slide down to x
/  Slide up to x
h  Hammer on to x
p  Pull off to x
() Note carried onto next bar

Below/Above tab:
+  Tapping
L  Left hand tap
.  Palm mute
,  Staccato
// Tremolo picking

| T A B |

Timing - 4/4, around 124 BPM.

| Verse 1 |

1
A#|-------------------------------------------------|
F |-------------------------------------------------|
C#|-------------------------------------------------|
G#|-------------------------------------------------|
D#|-0-----------------------------0--------0--------|
G#|-0-----------------------------0-----0--0-----0--|
  |                                 .        .
  |                +           +           +
A#|-------13-15-17-22-13-15-17-22-13-15-17-22-13-15-|
F |-------------------------------------------------|
C#|-------------------------------------------------|
G#|-------------------------------------------------|
D#|-------------------------------------------------|
G#|-------------------------------------------------|

2
A#|-------------------------------------------------|
F |-------------------------------------------------|
C#|-------------------------------------------------|
G#|-------------------------------------------------|
D#|-0-----------------------------0--------------0--|
G#|-0-----------------------------0-----000------0--|
  |                                     ...      .
  |    +           +           +           +
A#|-17-20-12-13-17-20-12-13-17-20-12-13-17-20-12-13-|
F |-------------------------------------------------|
C#|-------------------------------------------------|
G#|-------------------------------------------------|
D#|-------------------------------------------------|
G#|-------------------------------------------------|

3
A#|-------------------------------------------------|
F |-------------------------------------------------|
C#|-------------------------------------------------|
G#|-------------------------------------------------|
D#|-0-----------------------------0--------0--------|
G#|-0-----------------------------0-----0--0-----0--|
  |                                     .        .
  | +  L        +  L        +  L        +  L
A#|-17----12-13-17----12-13-17----12-13-17----12-13-|
F |----11----------11----------11----------11-------|
C#|-------------------------------------------------|
G#|-------------------------------------------------|
D#|-------------------------------------------------|
G#|-------------------------------------------------|

4
A#|-------------------------------------------------|
F |-------------------------------------------------|
C#|-------------------------------------------------|
G#|-------------------------------------------------|
D#|-0-----------------------------0--0--0--0--0--0--|
G#|-0-----------------------------0--0--0--0--0--0--|
  |
  | +           +           +           +
A#|-17-8--12-13-17-8--12-13-17-8--12-13-17-8--12-13-|
F |-------------------------------------------------|
C#|-------------------------------------------------|
G#|-------------------------------------------------|
D#|-------------------------------------------------|
G#|-------------------------------------------------|

5
A#|-------------------------------------------------|
F |-------------------------------------------------|
C#|-------------------------------------------------|
G#|-------------------------------------------------|
D#|-0-----------------------------0--------0--------|
G#|-0-----------------------------0-----0--0-----0--|
  |                                     .        .
  | +           +           +           +
A#|-17-10-13-15-17-10-13-15-17-10-13-15-17-10-13-15-|
F |-------------------------------------------------|
C#|-------------------------------------------------|
G#|-------------------------------------------------|
D#|-------------------------------------------------|
G#|-------------------------------------------------|
 
   6
A#|-------------------------------------------------|
F |-------------------------------------------------|
C#|-------------------------------------------------|
G#|-------------------------------------------------|
D#|-0-----------------------------0-----------------|
G#|-0-----------------------------0-----000------00-|
  |                                     ...      ..
  | +           +           +           +
A#|-17-8--12-13-17-8--12-13-17-8--12-13-17-8--12-13-|
F |-------------------------------------------------|
C#|-------------------------------------------------|
G#|-------------------------------------------------|
D#|-------------------------------------------------|
G#|-------------------------------------------------|

7
A#|-------------------------------------------------|
F |-------------------------------------------------|
C#|-------------------------------------------------|
G#|-------------------------------------------------|
D#|-------------------------------0--------0--------|
G#|-0-----------------------------0-----0--0-----0--|
  | .                                   .        .
  | +  L        +  L        +  L        +  L
A#|-17----12-13-17----12-13-17----12-13-17----12-13-|
F |----11----------11----------11----------11-------|
C#|-------------------------------------------------|
G#|-------------------------------------------------|
D#|-------------------------------------------------|
G#|-------------------------------------------------|

8
A#|-------------------------------------------------|
F |-------------------------------------------------|
C#|-------------------------------------------------|
G#|-------------------------------------------------|
D#|-0-----------------------------------------------|
G#|-0-----------------------------0--0--0--0--0000--|
  |                               .  .  .  .  ....
  | +           +           +           +
A#|-17-8--12-13-17-8--12-13-17-8--12-13-17-8--12-13-|
F |-------------------------------------------------|
C#|-------------------------------------------------|
G#|-------------------------------------------------|
D#|-------------------------------------------------|
G#|-------------------------------------------------|

| Guitar 3 in |

9
A#|-------------------------------------------------|
F |-------------------------------------------------|
C#|-------------------------------------------------|
G#|-------------------------------------------------|
D#|-0-----------------------------0--------0--------|
G#|-0-----------------------------0-----0--0-----0--|
  |                                     .        .
  | +           +           +           +
A#|-17-10-13-15-17-10-13-15-17-10-13-15-17-10-13-15-|
F |-------------------------------------------------|
C#|-------------------------------------------------|
G#|-------------------------------------------------|
D#|-------------------------------------------------|
G#|-------------------------------------------------|
  |
  |
A#|-------------------------------------------------|
F |-------------------------------------------------|
C#|-19-19-19-19-19-19-19-19-19-19-19-19-19-19-19-19-|
G#|-x--x--x--x--x--x--x--x--x--x--x--x--x--x--x--x--|
D#|-17-17-17-17-17-17-17-17-17-17-17-17-17-17-17-17-|
G#|-------------------------------------------------|

10
A#|-------------------------------------------------|
F |-------------------------------------------------|
C#|-------------------------------------------------|
G#|-------------------------------------------------|
D#|-0-----------------------------0--------------0--|
G#|-0-----------------------------0-----000------0--|
  |                                     ...      .
  | +           +           +           +
A#|-17-8--12-13-17-8--12-13-17-8--12-13-17-8--12-13-|
F |-------------------------------------------------|
C#|-------------------------------------------------|
G#|-------------------------------------------------|
D#|-------------------------------------------------|
G#|-------------------------------------------------|
  |
  |
A#|-------------------------------------------------|
F |-------------------------------------------------|
C#|-17-17-17-17-17-17-17-17-17-17-17-17-17-17-17-17-|
G#|-x--x--x--x--x--x--x--x--x--x--x--x--x--x--x--x--|
D#|-15-15-15-15-15-15-15-15-15-15-15-15-15-15-15-15-|
G#|-------------------------------------------------|

11
A#|-------------------------------------------------|
F |-------------------------------------------------|
C#|-------------------------------------------------|
G#|-------------------------------------------------|
D#|-------------------------------0--------0--------|
G#|-0-----------------------------0-----0--0-----0--|
  | .                                   .        .
  | +  L        +  L        +  L        +  L
A#|-17----12-13-17----12-13-17----12-13-17----12-13-|
F |----11----------11----------11----------11-------|
C#|-------------------------------------------------|
G#|-------------------------------------------------|
D#|-------------------------------------------------|
G#|-------------------------------------------------|
  |
  |
A#|-------------------------------------------------|
F |-------------------------------------------------|
C#|-15-15-15-15-15-15-15-15-15-15-15-15-15-15-15-15-|
G#|-x--x--x--x--x--x--x--x--x--x--x--x--x--x--x--x--|
D#|-13-13-13-13-13-13-13-13-13-13-13-13-13-13-13-13-|
G#|-------------------------------------------------|

12
A#|-------------------------------------------------|
F |-------------------------------------------------|
C#|-------------------------------------------------|
G#|-------------------------------------------------|
D#|-0-----------------------------0--0--0--0--0--0--|
G#|-0-----------------------------0--0--0--0--0--0--|
  |
  | +           +           +           +
A#|-17-8--12-13-17-8--12-13-17-8--12-13-17-8--12-13-|
F |-------------------------------------------------|
C#|-------------------------------------------------|
G#|-------------------------------------------------|
D#|-------------------------------------------------|
G#|-------------------------------------------------|
  |
  | 
A#|-------------------------------------------------|
F |-------------------------------------------------|
C#|-17-17-17-17-17-17-17-17-17-17-17-17-17-17-17-17-|
G#|-x--x--x--x--x--x--x--x--x--x--x--x--x--x--x--x--|
D#|-15-15-15-15-15-15-15-15-15-15-15-15-15-15-15-15-|
G#|-------------------------------------------------|

13
A#|-------------------------------------------------|
F |-------------------------------------------------|
C#|-------------------------------------------------|
G#|-------------------------------------------------|
D#|-0-----------------------------0--------0--------|
G#|-0-----------------------------0-----0--0-----0--|
  |                                     .        .
  | +           +           +           +
A#|-17-10-13-15-17-10-13-15-17-10-13-15-17-10-13-15-|
F |-------------------------------------------------|
C#|-------------------------------------------------|
G#|-------------------------------------------------|
D#|-------------------------------------------------|
G#|-------------------------------------------------|
  |
  |
A#|-------------------------------------------------|
F |-------------------------------------------------|
C#|-19-19-19-19-19-19-19-19-19-19-19-19-19-19-19-19-|
G#|-x--x--x--x--x--x--x--x--x--x--x--x--x--x--x--x--|
D#|-17-17-17-17-17-17-17-17-17-17-17-17-17-17-17-17-|
G#|-------------------------------------------------|

14
A#|-------------------------------------------------|
F |-------------------------------------------------|
C#|-------------------------------------------------|
G#|-------------------------------------------------|
D#|-0-----------------------------0-----------------|
G#|-0-----------------------------0-----000------00-|
  |                                     ...      ..
  | +           +           +           +
A#|-17-8--12-13-17-8--12-13-17-8--12-13-17-8--12-13-|
F |-------------------------------------------------|
C#|-------------------------------------------------|
G#|-------------------------------------------------|
D#|-------------------------------------------------|
G#|-------------------------------------------------|
  |
  |
A#|-------------------------------------------------|
F |-------------------------------------------------|
C#|-17-17-17-17-17-17-17-17-17-17-17-17-17-17-17-17-|
G#|-x--x--x--x--x--x--x--x--x--x--x--x--x--x--x--x--|
D#|-15-15-15-15-15-15-15-15-15-15-15-15-15-15-15-15-|
G#|-------------------------------------------------|

15
A#|-------------------------------------------------|
F |-------------------------------------------------|
C#|-------------------------------------------------|
G#|-------------------------------------------------|
D#|-------------------------------0--------0--------|
G#|-0-----------------------------0-----0--0-----0--|
  | .                                   .        .
  | +  L        +  L        +  L        +  L
A#|-17----12-13-17----12-13-17----12-13-17----12-13-|
F |----11----------11----------11----------11-------|
C#|-------------------------------------------------|
G#|-------------------------------------------------|
D#|-------------------------------------------------|
G#|-------------------------------------------------|
  |
  |
A#|-------------------------------------------------|
F |-------------------------------------------------|
C#|-15-15-15-15-15-15-15-15-15-15-15-15-15-15-15-15-|
G#|-x--x--x--x--x--x--x--x--x--x--x--x--x--x--x--x--|
D#|-13-13-13-13-13-13-13-13-13-13-13-13-13-13-13-13-|
G#|-------------------------------------------------|

16
A#|-------------------------------------------------|
F |-------------------------------------------------|
C#|-------------------------------------------------|
G#|-------------------------------------------------|
D#|-0-----------------------0--0--0--0-----0--0-----|
G#|-0-----------------------0--0--0--0-----0--0-----|
  |
  | +           +           +           +
A#|-17-8--12-13-17-8--12-13-17-8--12-13-17-8--12-13-|
F |-------------------------------------------------|
C#|-------------------------------------------------|
G#|-------------------------------------------------|
D#|-------------------------------------------------|
G#|-------------------------------------------------|
  |
  |
A#|-------------------------------------------------|
F |-------------------------------------------------|
C#|-17-17-17-17-17-17-17-17-14-14-14-14-14-14-14-14-|
G#|-x--x--x--x--x--x--x--x--x--x--x--x--x--x--x--x--|
D#|-15-15-15-15-15-15-15-15-12-12-12-12-12-12-12-12-|
G#|-------------------------------------------------|

| Pre Chorus |

17                            18
A#|-----------------------------|-----------------------------|
F |-----------------------------|-----------------------------|
C#|-----------------------------|--------------------5--------|
G#|------7p3-----------5--------|------7h10---5h7----5--------|
D#|-0-----------5h8----5--------|-8---------------------------|
G#|-0------------------5--------|-8---------------------------|
  | .                             .
  | 
A#|-17-----------17-------17----|-15-----------15-------17----|
F |---------18---------18----18-|---------18---------18----18-|
C#|-----------------------------|-----------------------------|
G#|-----------------------------|-----------------------------|
D#|-----------------------------|-----------------------------|
G#|-----------------------------|-----------------------------|
  | Let Ring - - - - - - - - - - - - - - - - - - - - - - - -
  |
A#|-13-----------13-------13----|-12-----------12-------13----|
F |---------15---------15----15-|---------15---------15----15-|
C#|-----------------------------|-----------------------------|
G#|-----------------------------|-----------------------------|
D#|-----------------------------|-----------------------------|
G#|-----------------------------|-----------------------------|
    Let Ring - - - - - - - - - - - - - - - - - - - - - - - -

19                            20
A#|-----------------------------|-----------------------------|
F |-----------------------------|-----------------------------|
C#|-----------------------------|----------------------2------|
G#|------7p3-----------5--------|-------2----------3-------3--|
D#|-0-----------5h8----5--------|----3-----3------------------|
G#|-0------------------5--------|-2------------0--------------|
  | .                             .
  | 
A#|-17-----------17-------17----|-18-----------18-------20----|
F |---------18---------18----18-|---------20---------22----22-|
C#|-----------------------------|-----------------------------|
G#|-----------------------------|-----------------------------|
D#|-----------------------------|-----------------------------|
G#|-----------------------------|-----------------------------|
  | Let Ring - - - - - - - - - - - - - - - - - - - - - - - -
  |
A#|-13-----------13-------13----|-15-----------15-------17----|
F |---------15---------15----15-|---------17---------18----18-|
C#|-----------------------------|-----------------------------|
G#|-----------------------------|-----------------------------|
D#|-----------------------------|-----------------------------|
G#|-----------------------------|-----------------------------|
    Let Ring - - - - - - - - - - - - - - - - - - - - - - - -

21                            22
A#|-----------------------------|-----------------------------|
F |-----------------------------|-----------------------------|
C#|-----------------------------|--------------------5--------|
G#|------7p3-----------5--------|------7h10---5h7----5--------|
D#|-0-----------5h8----5--------|-8---------------------------|
G#|-0------------------5--------|-8---------------------------|
  | .                             .
  | 
A#|-17-----------17-------17----|-15-----------15-------17----|
F |---------18---------18----18-|---------18---------18----18-|
C#|-----------------------------|-----------------------------|
G#|-----------------------------|-----------------------------|
D#|-----------------------------|-----------------------------|
G#|-----------------------------|-----------------------------|
  | Let Ring - - - - - - - - - - - - - - - - - - - - - - - -
  |
A#|-13-----------13-------13----|-12-----------12-------13----|
F |---------15---------15----15-|---------15---------15----15-|
C#|-----------------------------|-----------------------------|
G#|-----------------------------|-----------------------------|
D#|-----------------------------|-----------------------------|
G#|-----------------------------|-----------------------------|
    Let Ring - - - - - - - - - - - - - - - - - - - - - - - -

23                            24
A#|-----------------------------|-----------------------------|
F |-----------------------------|-----------------------------|
C#|-----------------------------|-2--------2--2--2--2--2------|
G#|------7p3-----------5--------|-2--------2--2--2--2--2------|
D#|-0-----------5h8----5--------|-0--------0--0--0--0--0------|
G#|-0------------------5--------|-----------------------------|
  | .                             .
  | 
A#|-17-----------17-------17----|-18--------------------------|
F |---------18---------18----18-|---------20------------------|
C#|-----------------------------|-----------------------------|
G#|-----------------------------|-----------------------------|
D#|-----------------------------|-----------------------------|
G#|-----------------------------|-----------------------------|
  | Let Ring - - - - - - - - - - - - - - - - - - - - - - - -
  |
A#|-13-----------13-------13----|-15--------------------------|
F |---------15---------15----15-|---------17------------------|
C#|-----------------------------|-----------------------------|
G#|-----------------------------|-----------------------------|
D#|-----------------------------|-----------------------------|
G#|-----------------------------|-----------------------------|
    Let Ring - - - - - - - - - - - - - - - - - - - - - - - -

| Chorus |

25                                26
A#|---------------------------------|---------------------------------|
F |---------------------------------|---------------------------------|
C#|-7-7-7-7----7-7-7----7-7-7------|-5-5-5-5----5-5-5----5-5-5------|
G#|-7-7-7-7----7-7-7----7-7-7------|-5-5-5-5----5-5-5----5-5-5------|
D#|-5-5-5-5----5-5-5----5-5-5------|-3-3-3-3----3-3-3----3-3-3------|
G#|---------------------------------|---------------------------------|
  |
  |
A#|---------------------------------|---------------------------------|
F |---------------------------------|---------------------------------|
C#|---------------------------------|---------------------------------|
G#|-7----3--------7-------3-------|-8----7---5------------5-------|
D#|---------------------------------|---------------------------------|
G#|---------------------------------|---------------------------------|

27                                28
A#|---------------------------------|---------------------------------|
F |---------------------------------|---------------------------------|
C#|-3-----3-----3---3-------3-------|-3-----3-----3---3--------3------|
G#|-3-----3-----3---3-------3-------|-3-----3-----3---3--------3------|
D#|-1-----1-----1---1-------1-------|-1-----1-----1---1--------1------|
G#|---------------------------------|---------------------------------|
  |
  |
A#|---------------------------------|---------------------------------|
F |---------------------------------|---------------------------------|
C#|---------------------------------|---------------------------------|
G#|-7-------------------------------|-7-------------------------------|
D#|-------------8-------------------|-------------8-------------------|
G#|---------------------------------|---------------------------------|

29                                30
A#|---------------------------------|---------------------------------|
F |---------------------------------|---------------------------------|
C#|-7-7-7-7----7-7-7----7-7-7------|-5-5-5-5----5-5-5----5-5-5------|
G#|-7-7-7-7----7-7-7----7-7-7------|-5-5-5-5----5-5-5----5-5-5------|
D#|-5-5-5-5----5-5-5----5-5-5------|-3-3-3-3----3-3-3----3-3-3------|
G#|---------------------------------|---------------------------------|
  |
  |
A#|---------------------------------|---------------------------------|
F |---------------------------------|---------------------------------|
C#|---------------------------------|---------------------------------|
G#|-7----3--------7-------3-------|-8----7---5------------5-------|
D#|---------------------------------|---------------------------------|
G#|---------------------------------|---------------------------------|

31                                32
A#|---------------------------------|---------------------------------|
F |---------------------------------|---------------------------------|
C#|-3-----3-----3---3-------3-------|-3-----3-----3---3--------3------|
G#|-3-----3-----3---3-------3-------|-3-----3-----3---3--------3------|
D#|-1-----1-----1---1-------1-------|-1-----1-----1---1--------1------|
G#|---------------------------------|---------------------------------|
  |
  |
A#|---------------------------------|---------------------------------|
F |---------------------------------|---------------------------------|
C#|---------------------------------|---------------------------------|
G#|-7-------------------------------|-7-------------------------------|
D#|-------------8-------------------|-------------8-------------------|
G#|---------------------------------|---------------------------------|

33                                34
A#|---------------------------------|---------------------------------|
F |---------------------------------|---------------------------------|
C#|---------------------------------|---------------------------------|
G#|-5-----5-----5---5-------5-------|-3-----3-----3---3--------3------|
D#|-5-----5-----5---5-------5-------|-3-----3-----3---3--------3------|
G#|-5-----5-----5---5-------5-------|-3-----3-----3---3--------3------|
  |
  |
A#|---------------------------------|---------------------------------|
F |---------------------------------|---------------------------------|
C#|-12----12----12--12------12------|-10----10----10--10-------10-----|
G#|-x-----x-----x---x-------x-------|-x-----x-----x---x--------x------|
D#|-10----10----10--10------10------|-8-----8-----8---8--------8------|
G#|---------------------------------|---------------------------------|

35                                36
A#|---------------------------------|---------------------------------|
F |---------------------------------|---------------------------------|
C#|---------------------------------|---------------------------------|
G#|-2-----2-----2---2-------2-------|-0-----0-----0---0--------0------|
D#|-3-----3-----3---3-------3-------|-0-----0-----0---0--------0------|
G#|-2-----2-----2---2-------2-------|-0-----0-----0---0--------0------|
  |
  |
A#|---------------------------------|---------------------------------|
F |---------------------------------|---------------------------------|
C#|-9-----9-----9---9-------5-------|-10----10----10--10-------10-----|
G#|-x-----x-----x---x-------x-------|-x-----x-----x---x--------x------|
D#|-7-----7-----7---7-------5-------|-8-----8-----8---8--------8------|
G#|---------------------------------|---------------------------------|

37                                38
A#|---------------------------------|---------------------------------|
F |---------------------------------|---------------------------------|
C#|---------------------------------|---------------------------------|
G#|-5-----5-----5---5-------5-------|-3-----3-----3---3--------3------|
D#|-5-----5-----5---5-------5-------|-3-----3-----3---3--------3------|
G#|-5-----5-----5---5-------5-------|-3-----3-----3---3--------3------|
  |
  |
A#|---------------------------------|---------------------------------|
F |---------------------------------|---------------------------------|
C#|-12----12----12--12------12------|-10----10----10--10-------10-----|
G#|-x-----x-----x---x-------x-------|-x-----x-----x---x--------x------|
D#|-10----10----10--10------10------|-8-----8-----8---8--------8------|
G#|---------------------------------|---------------------------------|
 
   39                                40
A#|---------------------------------|---------------------------------|
F |---------------------------------|---------------------------------|
C#|---------------------------------|---------------------------------|
G#|-7-----7-----7---7-------7-------|-7-----7-----7---7--------7------|
D#|-7-----7-----7---7-------7-------|-7-----7-----7---7--------7------|
G#|-7-----7-----7---7-------7-------|-7-----7-----7---7--------7------|
  |
  |
A#|---------------------------------|---------------------------------|
F |---------------------------------|---------------------------------|
C#|-12----12----12--12------12------|-9-----9-----9---9--------9------|
G#|-x-----x-----x---x-------x-------|-x-----x-----x---x--------x------|
D#|-10----10----10--10------10------|-7-----7-----7---7--------7------|
G#|---------------------------------|---------------------------------|

| Interlude |

41                           42
A#|----------------------------|--------------------------|
F |----------------------------|--------------------------|
C#|----------------------------|--------------------------|
G#|----------------------------|--------------------------|
D#|-0---------------------0-0--|-0-------------------0-0--|
G#|-0---------------------0-0--|-0-------------------0-0--|
                                                     . .

43                           44
A#|----------------------------|--------------------------|
F |----------------------------|--------------------------|
C#|----------------------------|--------------------------|
G#|----------------------------|--------------------------|
D#|-0---------------------0-0--|-0------------------------|
G#|-0---------------------0-0--|-0---------0-0-0-0-000000-|
                                           . . . . ......

45                           46
A#|----------------------------|--------------------------|
F |----------------------------|--------------------------|
C#|----------------------------|--------------------------|
G#|----------------------------|--------------------------|
D#|-0---------------------0-0--|-0-------------------0-0--|
G#|-0---------------------0-0--|-0-------------------0-0--|
                                                     . .

47                           [48]
A#|----------------------------|------------------------------|
F |----------------------------|------------------------------|
C#|----------------------------|------------------------------|
G#|----------------------------|------------------------------|
D#|-0---------------------0-0--|-0----------------------------|
G#|-0---------------------0-0--|-0----------------------------|
  |
  |                                 // // //
A#|----------------------------|----------18------------------|
F |----------------------------|-------17---------------------|
C#|----------------------------|----18------------------------|
G#|----------------------------|------------------------------|
D#|----------------------------|------------------------------|
G#|----------------------------|------------------------------|
  |
  |                                           // // // 
A#|----------------------------|--------------------18--------|
F |----------------------------|-----------------17-----------|
C#|----------------------------|--------------18--------------|
G#|----------------------------|------------------------------|
D#|----------------------------|------------------------------|
G#|----------------------------|------------------------------|

| Verse 2 |

Bars 49 - 55: repeat bars 1 - 7.

56
A#|----------------------------------------------------|
F |----------------------------------------------------|
C#|-------------------------10------------5------------|
G#|----------------0--0-----10------------5------------|
D#|-0-----0--0-----0--0-----8-------------3------------|
G#|-0-----0--0-----0--0--------------------------------|
  | .
  | +           +           +
A#|-17-8--12-13-17-8--12-13-17-------------------------|
F |----------------------------------------------------|
C#|----------------------------------------------------|
G#|----------------------------------------------------|
D#|----------------------------------------------------|
G#|----------------------------------------------------|

| Chorus |

Bars 57 - 70: Repeat bars 25 - 38.

71                                72
A#|---------------------------------|---------------------------------|
F |---------------------------------|---------------------------------|
C#|---------------------------------|---------------------------------|
G#|-7-----7-----7---7-------7-------|-7-----7-----7---7--------7------|
D#|-7-----7-----7---7-------7-------|-7-----7-----7---7--------7------|
G#|-7-----7-----7---7-------7-------|-7-----7-----7---7--------7------|
  |
  |
A#|---------------------------------|---------------------------------|
F |---------------------------------|---------------------------------|
C#|-12----12----12--12------12------|-14----14----14--14-------14-----|
G#|-x-----x-----x---x-------x-------|-x-----x-----x---x--------x------|
D#|-10----10----10--10------10------|-12----12----12--12-------12-----|
G#|---------------------------------|---------------------------------|

| Breakdown |

73 (75)                           74 (76)          Repeat both bars
A#|-10--------------------13---13---|-(13)-------------10-------------|
F |-10--------------------10---10---|-(10)-------------8--------------|
C#|---------------------------------|---------------------------------|
G#|---------------------------------|---------------------------------|
D#|------0-0-0-0-0-0-0-0------------|------0-0-0-0-0--------0-0-0-0-0-|
G#|------0-0-0-0-0-0-0-0------------|------0-0-0-0-0--------0-0-0-0-0-| 
         . . . . . . . .                   . . . . .        . . . . .

77 {79)                        78 (80)       Repeat both bars
A#|------------------------------|------------------------------|
F |------------------------------|------------------------------|
C#|------------------------------|------------------------------|
G#|------------------------------|------------------------------|
D#|-0-----0-0-0-0-0-0-0-0-0------|----0-0-0-0-0-0---0-0-0-0-0-0-|
G#|-0-----0-0-0-0-0-0-0-0-0------|----0-0-0-0-0-0---0-0-0-0-0-0-|
    .     . . . . . . . . .

81  Pause for 3 counts...
A#|-------------------------------------------|
F |-------------------------------------------|
C#|-------------------------------------------|
G#|-------------------------------------------|
D#|-------------------------------------------|
G#|--------------------------------15--------|

| Final Chorus |

Bars 82 - 97: Repeat bars 57 - 72 (Repeat the 2nd Chorus)
  
  Then bring it on home:

98 - Fade
A#|-------------------------------------------|
F |-------------------------------------------|
C#|-------------------------------------------|
G#|-0-----------------------------------------|
D#|-0-----------------------------------------|
G#|-0-----------------------------------------|
    Let Ring - - - - - - - - - - - - - - - - -

| T A B |

Good luck Head-bangers! Let me know how I'm tabbing, alright? m/
 
 
Memphis May Fire - The Abandoned Tab :: indexed at Ultimate Guitar.
The Abandoned tabs @ 911Tabs
People who played Memphis May Fire - The Abandoned Tab also played these songs by Memphis May Fire:
Miles Away Chords, No Ordinary Love Chords, Speechless Chords, Miles Away Tab, Miles Away Chords, Cowbells Makin A Comeback Tab

Quick tip, so you can enjoy The Abandoned Tab even more:

If you spend just 10 seconds to register, you will be able to comment on all the chords and tabs and rate them. You will as well be able to comment on videos of your fellow guitarists and give them ratings from 1 to 5 ... And - of course - you can share your own videos with them and see what they think of you. :)
Click here to join us!

Show us your talent, perform The Abandoned Tab!

Here you can post a video or audio performance. Tell me more ...
Where can we find your performance? Tell me more ...
Your comment:
Please, log in to post your performance.