Artists by letter: A B C D E F G H I J K L M N O P Q R S T U V W X Y Z 0-9

 
Endless Love - The Myth Tab
                                Endless love

By Muziekplaneet -(--)-

This is a very beautyfull song, wish you all good times while playing

André Plaatzer - Muziekplaneet -(--)-



^                                                                       
     S  E.  Q    Q    E  E     H        H           S  E.  Q    S  E.  Q     
E||--------------0----------|--------------------|--------------------------|
B||--0h-1-------------0-----|--0-----------------|--------------------------|
G||--2-------------------2--|--------------------|--0h-2--------2p-0--------|
D||--2------2---------------|-----------2--------|---------3-----------3----|
A||--0----------------------|--------------------|--------------------------|
E||-------------------------|--3-----------------|--1-----------------------|

Q.     S  S H           Q    Q    Q    Q       Q    E.  S  E  S S  Q     
-----------------------|------------0---------|---------------------------|
-----------------------|--1----3---------1----|--0--------1h-3----1p-0----|
-----------------------|--2-------------------|--0------------------------|
--2------3p-2-0--------|----------------------|-------2---------2---------|
-----------------------|--0-------------------|---------------------------|
--3-----------4--------|----------------------|--3------------------------|

^                 
  Q    Q    H           Q    Q    Q    Q       W                 
---------------------|----------------------|--3----------------|
------------0--------|------------0---------|--0----------------|
--2------------------|--0--------------0----|--0----------------|
-------3-------------|-------0--------------|--0----------------|
---------------------|----------------------|--2----------------|
--1------------------|--3-------------------|--3----------------|

Q    Q    H           Q    Q    Q.     E     Q    Q    Q    E  E   
------------0--------|------------0---------|--------------------0--|
---------------------|--0-------------------|-------0----1----3-----|
--2------------------|--0----------------0--|--2--------------------|
--2----2-------------|-------2--------------|--3--------------------|
--0------------------|----------------------|-----------------------|
---------------------|--3-------------------|-----------------------|

^                                                             
  Q    Q    Q.     E     Q    Q    S  E.  Q       Q    E  E  E  E  E  E   
--L-------------------|------------3s-5--------|--3----5--3-----------0--|
------------1---------|------------------------|--3----------------3-----|
------------0------2--|--2---------------------|----------------0--------|
-------2----2---------|--3----3----------------|-------------------------|
--3---------3---------|------------------------|-------------2-----------|
----------------------|-------------------5----|--3----------------------|

^            ^                                            
  Q    Q    Q    Q       H        Q.     E     Q    Q    S  E.  Q     
----------------------|---------------------|------------3s-5--------|
------------1---------|--1--------L---------|------------------------|
------------0---------|--0--------L------2--|--2---------------------|
-------2---------2----|--2--------L---------|--3----3----------------|
--3-------------------|--3--------L---------|------------------------|
----------------------|---------------------|-------------------5----|

Q    E  E  Q    E   E     Q    Q    H           Q    Q    H         
--3----------------------|---------------------|---------------------|
--3----3--5-------5s--6--|--1------------------|--1------------------|
-------------------------|------------0--------|------------2--------|
-------------------------|-------2-------------|-------2-------------|
-------------2-----------|--3------------------|--0------------------|
--3----------------------|---------------------|---------------------|

Q    Q    E   Q.        H.           E  E     Q    Q    Q    Q     
-----------------------|---------------------|----------------------|
------------3s--5------|--3------------0-----|------------0---------|
--2--------------------|--0---------------2--|--2--------------2----|
--3----3---------------|---------------------|--2----2--------------|
-----------------------|---------------------|--0-------------------|
-----------------------|--3------------------|----------------------|

^                                                                
  W                   Q    Q    S  E.  Q       Q    Q    H         
--0----------------|------------------------|------------0--------|
--0----------------|------------3s-5---L----|---------------------|
--2----------------|--2---------------------|--0------------------|
--2----------------|-------2----------------|-------2-------------|
--0----------------|--0---------------------|---------------------|
-------------------|------------------------|--3------------------|

^         ^                                   
  Q    Q    Q    Q       Q    Q    Q.     E     Q    Q    S  E.  Q     
----------------------|--0---------0---------|------------3s-5--------|
-------0----1----3----|--1---------1---------|------------------------|
--2-------------------|--0---------0------2--|--2---------------------|
--3-------------------|--2---------2---------|--3----3----------------|
----------------------|--3----3----3---------|------------------------|
----------------------|----------------------|-------------------5----|

^                   
  Q    E  E  E  E  Q       Q    Q    Q    Q       H        Q.     E   
--3----5--3-------------|--0-------------------|--0------------------|
--3----------------3----|--1---------1---------|--1------------------|
----------------0-------|-----------------0----|--0--------0------2--|
------------------------|-------2--------------|--2------------------|
-------------2----------|--3-------------------|--3------------------|
--3---------------------|----------------------|---------------------|

Q    Q    S  E.  Q       Q    E  E  Q    E   E     Q    Q    Q    E  E   
------------3s-5--------|--3----------------------|--0--------------------|
------------------------|--3----3--5-------5s--6--|-----------------------|
--2---------------------|-------------------------|------------0----------|
--3----3----------------|-------------------------|-------2---------------|
------------------------|-------------2-----------|--3--------------3--2--|
-------------------5----|--3----------------------|-----------------------|

^                                              
  Q    Q    H           Q    Q    S  E.  Q       Q    Q    Q    E  E   
---------------------|------------------------|------------3----------|
--1------------------|------------3s-5---L----|--3----0---------0-----|
--2---------2--------|--2---------------------|--0-----------------0--|
-------2-------------|--3----3----------------|-----------------------|
--0------------------|------------------------|-----------------------|
---------------------|------------------------|--3--------------------|

^      v     ^  v  ^                 ^                      
  Q    Q    Q.     E     E  E  Q    Q    Q       Q    E  E  E  E  Q     
----------------------|-----------------------|----------0-------------|
------------0------0--|--L--0--0---------0----|--1----3-----------1----|
--2---------2------2--|--L--2--2----2---------|--2----------------2----|
-------2----2------2--|--L--2--2----2---------|--2-------------2-------|
--0---------0------0--|--L--0--0--------------|--0----------0----------|
----------------------|-------------0---------|------------------------|

Q    Q    Q    E  E     Q    E  E  E  E  S  S E     Q    E  E  E   E  Q     
-----------------------|---------------------------|-------------------------|
--0---------0----------|-------1--3--------3s-5-5--|--L-----------------0----|
--0---------0----------|--2------------------------|-------0-----0h--2-------|
-------2------------2--|----------------0----------|-------------------------|
-----------------------|---------------------------|--3-------3--2-----------|
--0--------------0-----|--1----------3-------------|-------------------------|

^                                                                         
  Q    E  E  E  E  E  E     Q    Q    Q    E  E     Q    E  E  E  E  E  E   
----------0--------------|-----------------------|-------------------------|
--1----3-----------1-----|--0--------------------|-------1--3--L-----1--1--|
--2----------------2-----|--0---------0-------0--|--2-------------0--------|
--2-------------2-----2--|-------2---------------|-------------------------|
--0----------0-----------|-----------------------|-------------------------|
-------------------------|--0--------------0-----|-------------3-----------|

^                                               
  Q    E  E  E   E  Q       Q    E  E  E  E  E  E     Q    Q    Q    E  E   
-------------------------|----------0--------------|-----------------------|
--L-----------------0----|--1----3-----------1-----|--0--------------------|
-------------0h--2-------|--2----------------2-----|--0---------0----------|
-------2-----------------|--2-------------2-----2--|-------2------------2--|
--3-------3--2-----------|--0----------0-----------|-----------------------|
-------------------------|-------------------------|--0--------------0-----|

^                       
  Q    E  E  E  E  S  S E     Q    E  E  E   E  Q       Q    E  E  E  E  E  E   
---------------------------|-------------------------|----------0--------------|
-------1--3--------3s-5-5--|--L-----------------0----|--1----3-----------1-----|
--2------------------------|-------0-----0h--2-------|--2----------------2-----|
----------------0----------|-------------------------|--2-------------2-----2--|
---------------------------|--3-------3--2-----------|--0----------0-----------|
--1----------3-------------|-------------------------|-------------------------|

Q    Q    Q    E  E     Q    E  E  E  E  E  E     Q    Q    E  E  E  E   
-----------------------|-------------------------|------------0-----------|
--0--------------------|-------1--3--------1--1--|--L---------0--------0--|
--0---------0----------|--2-------------0--------|------------------2-----|
-------2------------2--|-------------------------|-------2----2--2--------|
-----------------------|-------------------------|--3---------------------|
--0--------------0-----|--1----------3-----------|------------------------|

Q    Q    Q    E  E     H        H           Q    Q    Q    E  E   
------------0----------|--------------------|------------0----------|
--1--------------3--1--|--0-----------------|-----------------------|
--2----2---------------|--0--------0--------|--2--------------------|
--3--------------------|-----------0--------|--2----2---------0--2--|
-----------------------|--------------------|--0--------------------|
-----------------------|--3-----------------|-----------------------|

Q    Q    E.  E.  E     Q    E  E  E  E  E  E     Q.     E  E  E  E   E   
-----------------------|----------------------0--|--3----------------------|
------------3---1---0--|--0----1-----------1-----|--0------3--------1p--0--|
-----------------------|----------2-----2--------|--0----------------------|
--0--------------------|--3----------3-----------|--0------------0---------|
-------2---------------|-------------------------|--2---------2------------|
--3--------------------|-------------------------|--3----------------------|

^                                          
  Q    Q    Q    Q       W                   Q    Q    S  E.  Q     
----------------------|-------------------|------------------------|
------------0---------|--0----------------|------------3s-5---L----|
--2--------------2----|--2----------------|--2---------------------|
-------2--------------|--2----------------|-------2----------------|
--0-------------------|--0----------------|--0---------------------|
----------------------|-------------------|------------------------|

^                    
  Q    Q    H           Q    Q    Q    Q       Q    Q    Q.     E   
------------0--------|----------------------|--0-------------------|
---------------------|-------0----1----3----|--1-------------------|
--0------------------|--2-------------------|--0---------0------2--|
-------2-------------|--3-------------------|--2-------------------|
---------------------|----------------------|--3----3--------------|
--3------------------|----------------------|----------------------|

Q    Q    S  E.  Q       Q    E  E  E  E  Q       Q    Q    Q    Q     
------------3s-5--------|--3----5--3-------------|----------------------|
------------------------|--3----------------3----|------------1---------|
--2---------------------|----------------0-------|-----------------0----|
--3----3----------------|------------------------|-------2--------------|
------------------------|-------------2----------|--3-------------------|
-------------------5----|--3---------------------|----------------------|

^        ^                                                            
  H        Q.     E     Q    Q    S  E.  Q       Q    Q    Q    E   E   
---------------------|------------3s-5--------|--3---------------------|
--1--------1---------|------------------------|--3----3---------5s--6--|
--0--------0------2--|--2---------------------|------------------------|
--2--------2---------|--3----3----------------|------------------------|
--3--------3---------|------------------------|------------2-----------|
---------------------|-------------------5----|--3---------------------|

Q    Q    Q.     E     Q    Q    H           Q    Q    E   E  Q     
--0-------------------|---------------------|------------------------|
----------------------|--1------------------|------------3s--5-------|
------------0---------|--2---------2--------|--2---------------------|
-------2--------------|-------2-------------|--3----3----------------|
--3----------------2--|--0------------------|-------------------0----|
----------------------|---------------------|------------------------|

^      v     ^  v  ^               
  Q    Q    Q    E  E     Q    Q    Q.     E     E  E  Q    Q    Q     
------------3----------|----------------------|-----------------------|
--0--------------0-----|------------0------0--|--L--0--0---------0----|
-------0------------0--|--2---------2------2--|--L--2--2----2---------|
-----------------------|-------2----2------2--|--L--2--2----2---------|
-----------------------|--0---------0------0--|--L--0--0--------------|
--3--------------------|----------------------|-------------0---------|

^                                                                        
  Q    E  E  E  E  E  E     H        H           Q    E  E  E  E  S  S E   
----------0--------------|--------------------|---------------------------|
--1----3-----------1-----|--0-----------------|-------1--3--------3s-5-5--|
--2----------------2-----|--0--------0--------|--2------------------------|
--2-------------2-----2--|-----------2--------|--3-------------0----------|
--0----------0-----------|--------------------|---------------------------|
-------------------------|--0-----------------|-------------3-------------|

^                                              
  Q    E  E  E   E  Q       Q    E  E  E  E  E  E     Q    Q    Q    Q     
-------------------------|----------0--------------|----------------------|
--L-----------------0----|--1----3-----------1-----|--0-------------------|
-------0-----0h--2-------|--2----------------2-----|--0---------0---------|
-------------------------|--2-------------2-----2--|-------2----2---------|
--3-------3--2-----------|--0----------0-----------|----------------------|
-------------------------|-------------------------|--0--------------0----|

^                       
  Q    E  E  E  E  E  E     Q    E  E  E   E  Q       Q    E  E  E  E  E  E   
-------------------------|-------------------------|----------0--------------|
-------1--3--------1--1--|--------------------0----|--1----3-----------1-----|
--2----------------------|-------------0h--2-------|--2----------------2-----|
--3-------------0--------|-------2-----------------|--2-------------2-----2--|
-------------------------|--3-------3--2-----------|--0----------0-----------|
-------------3-----------|-------------------------|-------------------------|

Q    Q    H           Q    E  E  E  E  S  S E     Q    E  E  E   E  Q     
---------------------|---------------------------|-------------------------|
--0------------------|-------1--3--------3s-5-5--|--L-----------------0----|
--0---------0--------|--2------------------------|-------0-----0h--2-------|
-------2-------------|--3-------------0----------|-------------------------|
---------------------|---------------------------|--3-------3--2-----------|
--0------------------|-------------3-------------|-------------------------|

^                                                                        
  Q    E  E  E  E  E  E     Q    Q    Q    Q       Q    E  E  E  E  E  E   
----------0--------------|----------------------|-------------------------|
--1----3-----------1-----|--0-------------------|-------1--3--------1--1--|
--2----------------2-----|--0---------0---------|--2----------------------|
--2-------------2-----2--|-------2----2---------|----------------0--------|
--0----------0-----------|----------------------|-------------------------|
-------------------------|--0--------------0----|-------------3-----------|

^                                              
  Q    E  E  E   E  Q       Q    E  E  E  E  E  E     Q    Q    Q    Q     
-------------------------|----------0--------------|----------------------|
--------------------0----|--1----3-----------1-----|--0-------------------|
-------------0h--2-------|--2----------------2-----|--0---------0---------|
-------2-----------------|--2-------------2-----2--|-------2----2---------|
--3-------3--2-----------|--0----------0-----------|----------------------|
-------------------------|-------------------------|--0--------------0----|

^                       
  Q    E  E  Q    E  E     Q    E  E  E   E  Q       Q    E  E  E  E  E  E   
----------0-------------|-------------------------|----------0--------------|
--1----3-----3----1--3--|--L-----------------0----|--1----3-----------1-----|
--2----------0----------|-------0-----0h--2-------|--2----------------2-----|
--3----------0----------|-------------------------|--2-------------2-----2--|
-------------2----------|--3-------3--2-----------|--0----------0-----------|
-------------3----------|-------------------------|-------------------------|

Q    Q    H           Q    E  E  Q    E  E     Q    E  E  E   E  Q     
---------------------|------------------------|-------------------------|
--0------------------|--1----3--1--3----1--1--|--------------------0----|
--0---------0--------|--2----------0----------|-------------0h--2-------|
-------2----2--------|--3----------0----------|-------2-----------------|
---------------------|-------------2----------|--3-------3--2-----------|
--0------------------|-------------3----------|-------------------------|

^                                                                          
  Q    E  E  E  E  E  E     Q    Q    Q    Q       Q    E  E  E  E  S  S E   
----------0--------------|----------------------|---------------------------|
--1----3-----------1-----|--0-------------------|-------1--3--------3s-5-5--|
--2----------------2-----|--0---------0---------|--2------------------------|
--2-------------2-----2--|-------2----2---------|----------------0----------|
--0----------0-----------|----------------------|---------------------------|
-------------------------|--0--------------0----|-------------3-------------|

^                                             
  Q    E  E  E   E  Q       Q    E  E  E  E  E  E     Q    Q    H         
-------------------------|----------0--------------|---------------------|
--L-----------------0----|--1----3-----------1-----|--0------------------|
-------0-----0h--2-------|--2----------------2-----|--0---------0--------|
-------------------------|--2-------------2-----2--|-------2-------------|
--3-------3--2-----------|--0----------0-----------|---------------------|
-------------------------|-------------------------|--0------------------|

Q    E  E  E  E  Q       E.  T T Q    Q    Q       W                 
------------------------|-------------------------|-------------------|
-------1--3--------1----|----------1--------------|-------------------|
--2-------------0--0----|---------------0---------|-------------------|
--3---------------------|--------2----------------|-------------------|
------------------------|--3---L-------------3----|-------------------|
-------------3----------|-------------------------|-------------------|

Q    E  E  Q    Q       Q    E  E  H           Q    Q    H         
------------------0----|----------------------|---------------------|
--1----3--5-------1----|--0-------------------|-------1----0--------|
--2----4--5------------|--0----0--2--0--------|--2----2-------------|
-----------------------|----------------------|--3------------------|
--0----------0---------|----------------------|---------------------|
-----------------------|--0-------------------|---------------------|

rit.                                                              
                                                 ^                  
  Q    E   E  H           Q    Q    Q    Q       W                  
-----------------------|----------------------|--0----------------||
-----------------------|------------0---------|--0----------------||
-------0h--2--0--------|-----------------2----|--2----------------||
-----------------------|-------2--------------|--2----------------||
-----------------------|--0-------------------|--0----------------||
-----------------------|----------------------|-------------------||



Duration Legend
---------------
W - whole
H - half
Q - quarter
E - 8th
S - 16th
T - 32nd
X - 64th
. - note dotted
|-n-|  - n-tuplets

Tablature Legend
----------------
L - tied note
x - dead note
g - grace note
(n) - ghost note
> - accentuded note
NH - natural harmonic
AH - artificial harmonic
TH - tapped harmonic
SH - semi harmonic
PH - pitch harmonic
h - hammer on
p - pull off
b - bend
br - bendRelease
pb - preBend
pbr - preBendRelease
brb - bendReleaseBend
n/ - tremolo bar dip
n - tremolo bar dive
-/n - tremolo bar Release up
/n - tremolo bar inverted dip
/n - tremolo bar return
-n - tremolo bar Release down
S - shift slide
s - legato slide
/ -  slide into from below or out of upwards
 -  slide into from above or out of downwards
~ - vibrato
W - wide vibrato
tr - trill
TP - tremolo picking
T - tapping
S - slap
P - pop
< - fade in
^ - brush up
v - brush down

 
 
Misc Unsigned Bands - Endless Love - The Myth Tab :: indexed at Ultimate Guitar.
Endless Love - The Myth tabs @ 911Tabs

Quick tip, so you can enjoy Endless Love - The Myth Tab even more:

If you don't really know how to deal with "Absus4" chord and his equally confusing brothers, just put the mouse cursor over them and you will be shown a helpful chord diagram.

Show us your talent, perform Endless Love - The Myth Tab!

Here you can post a video or audio performance. Tell me more ...
Where can we find your performance? Tell me more ...
Your comment:
Please, log in to post your performance.