Artists by letter: A B C D E F G H I J K L M N O P Q R S T U V W X Y Z 0-9

 
Good Day Chords
Here's my version, of course it's more or less played on piano, but here are its basics:

intro tab:

e|-------0-------0----------0-------0-----0-------0-----0-------0--------------1-3----|
B|-----------3------------------3-------------3-------------3---------------1---------|
G|---2-----2---2---(x4)-0-----0---0---2-----2---2---0-----0---0----2------2-----------|
D|-----2------------------2-------------2-------------2------------3----3-------------|
A|-----------------------------------------------------------------3------------------|
E|-----------------------------------------------------------------1------------------|

Verse picking:

e|---------0-----------------------------------------------------------------|
B|-------1---1---------------------------------------------------------------|
G|-----2-------2-------3-----3-----------------------------------------------|
D|---2-----------2---2-----0---0--(x6)---------------------------------------|
A|-0-------------------------------------------------------------------------|
E|-----------------2-----1---------------------------------------------------|

Verse 1: (Picking)
So you dont want to hear about my good song?
And you dont want to hear about how i am getting on
With all the things that i can get done
The sun is in the sky & i am by my lonesome
So you don't want to hear about my good day?
You have better things to do than to hear me say

(Chourus)
C              F#          F             Am
God its been a lovely day! everything is going my way
C              F#              F
I took out the trash today and i'm on fire...

(Verse 2)
Am                                 F#   F
So you don't want to hear about my good friends?
You dont have the guts to take the truth or consequence
Success is in the eye of the beholder
And its looking even better over your cold shoulder

(Bridge 1)
        Am                    F#             F
I'm not suggesting you up and line me up for questioning
But jesus think about the bridges you are burning
And i'm betting
That even though you knew it from the start
      E                            Dm       G
You'd rather be a bitch than be an ordinary broken heart

(Verse 3:  Picking)

So go ahead and talk about your bad day...
I want all the details of the pain and misery
That you are inflicting on the others
I consider them my sisters and i'd like their numbers

Chorus: (Same chords as last chorus)

God its been a lovely day! everything is going my way
I took up croquet today and i'm on fire

Bridge 2:

C               F#           F      Am
I picked up the pieces of my broken ego
       C               F#              F       Am
I have finally made my peace as far as you and me go
        C                F#            F
But i'd love to have you up to see the place
              E                                G#             B
& i'd like to do more than survive i'd like to rub it in your face.....

Chorus:  (Same chords as last chorus)

Hey! its been a lovely day! everything is going my way
I had so much fun today and i'm on fire
God it's been a lovely day everything's been going my way
Ever since you went away hey i'm on fire.....

A5 F#5 F5
         I'm on fire...
A5 F#5 F5
         I'm on fire...

   Am                             F#   F
So you dont want to hear about my good day?


 
 
Dresden Dolls - Good Day Chords :: indexed at Ultimate Guitar.
Good Day tabs @ 911Tabs

About the artist behind Good Day Chords:

The Dresden Dolls[1] are an American musical duo from Boston, Massachusetts. Formed in 2001, the group consists of Amanda Palmer (vocals, piano, harmonica, ukelele) and Brian Viglione (drums, percussion, guitar, vocals). The two describe their style as "Brechtian punk cabaret", a phrase invented by Palmer because she was "terrified" that the press would invent a name that "would involve the word gothic."[2] The Dresden Dolls are part of an underground dark cabaret movement that started gaining momentum in the early 1990s.

Indexed at Wikipedia.

Show us your talent, perform Good Day Chords!

Here you can post a video or audio performance. Tell me more ...
Where can we find your performance? Tell me more ...
Your comment:
Please, log in to post your performance.