Artists by letter: A B C D E F G H I J K L M N O P Q R S T U V W X Y Z 0-9

 
Ode To The Sun Tab
Tabbed by: Deniz
Email: [email protected]

Well I found this song pretty hard to tab but I think its the best one 
out so far.

Tuning: DADGBE

e|----------------------------------------------------333-222----|
B|--6---6---6---6---6---6---------4---4---4---4---4--------------|
G|----5---5---5---5---5---5---------6---6---6---6---6*-----------|
D|---------------------------------------------------------------|
A|---------------------------------------------------------------|
D|---------------------------------------------------------------|
*=let ring
e|-----------------------------------------------------66666-----|
B|--6---6---6---6---6---6---------4---4---4---4---4--------------|
G|---5---5---5---5---5---5---------6---6---6---6---6*-----------|  
D|---------------------------------------------------------------|
A|---------------------------------------------------------------|
D|---------------------------------------------------------------|
*=let ring

Moderate speed picking for this bit
E|---------------------------------------------------------------|
B|---9----8------------------------------------------------------|
G|--10----8----3-------------------------------------------------|
D|-------------3-------------------------------------------------|  x2
A|---------------------------------------------------------------|
D|---------------------------------------------------------------|

Singing Starts

E|---------------------------------------------------------------|
B|---9----8----6-------------------------------------------------|
G|--10----8----6-------------------------------------------------|
D|---------------------------------------------------------------|  x4
A|---------------------------------------------------------------|
D|---------------------------------------------------------------|

Moderate picking again (Pre-chorus)

E|--8--11---8--11---8---13---------------------------------------|
B|--6---6---6---6---6---6----------------------------------------|
G|---------------------------------------------------------------|
D|---------------------------------------------------------------|
A|---------------------------------------------------------------|
D|---------------------------------------------------------------|
Chorus (Distorted)
E|---------------1-----------------------------------------------|
B|--6-----4------1-----4-----------------------------------------|
G|--5-----3------1-----3-----------------------------------------|
D|--3-----1------1-----1-----------------------------------------| 
A|--3-----1------1-----1-----------------------------------------|
D|--3-----1------------1-----------------------------------------|

Repeat "Singing Starts"
Then on the second time of the next chorus its:

E|---------------1-----------------------------------------------|
B|--6-----9------1-----4-----------------------------------------|
G|--5-----8------1-----3-----------------------------------------|
D|--3-----6------1-----1-----------------------------------------| 
A|--3-----6------1-----1-----------------------------------------|
D|--3-----6------------1-----------------------------------------|



Thats about all the parts you need to know, just fit them in their places :)


 
 
Dredg - Ode To The Sun Tab :: indexed at Ultimate Guitar.
Ode To The Sun tabs @ 911Tabs

Quick tip, so you can enjoy Ode To The Sun Tab even more:

YourChords.com Guitar Chords and Tabs Archive is currently indexing over 240'000 songs from 21'000+ different artists. And new chords just keep on coming in, so you will surely never run out of them.

Show us your talent, perform Ode To The Sun Tab!

Here you can post a video or audio performance. Tell me more ...
Where can we find your performance? Tell me more ...
Your comment:
Please, log in to post your performance.