Artists by letter: A B C D E F G H I J K L M N O P Q R S T U V W X Y Z 0-9

 
My Eyes Are Red Tab
http://laidblak.bandcamp.com/

Hi guys.
i love this song simply because it is awesome, and because these guys are from Bristol,
just like me. Unbelieveably, there are no tabs for this song ANYWHERE on the net, so i
couldnt resist being the first. I think that you tune the low E down to a D#. Also, Its 
my first true tab, so, you know, be nice :-)

INTRO
e )--------------------------------------------------------x|
B )9-9-9---7-7-7---6-6-6-6--6-6p4-2-----2-4-4h6p4-2-4-----x-|
G )-------------------------------3-3-3------------------x--|
D )-9-9-9-8-8-8-8-6-6-6-6---6-6-----1-1-----------1-----x---|
A )-----------------------------------------6---------------|
D#)---------------------------------------------------0-----|

VERSE
e )----------------------|
B )7-66---7--6--7--6-----|
G )--------8--6--8--6-6h8|--> Eeeeeeeeee...  X 7
D )8-66-----8--8--8--8---|
A )----------------------|
D#)-----0----------------|

CHORUS (chords)

---------------D#m----D#m----D#m
My eyes are red, ive been burnin'

----D#m----D#m----D#m
ive been burnin'

A#m----D#m----D#m...
---my eyes are red...

the song then goes more dub so theres no more acoustic guitar, and i cant here any
electric, just bass and percussion, so yeah, there you go,

happy guitar playing, happy bass playing, happy smoking and MERRY XMAS!!
 
 
Laid Blak - My Eyes Are Red Tab :: indexed at Ultimate Guitar.
My Eyes Are Red tabs @ 911Tabs
People who played Laid Blak - My Eyes Are Red Tab also played these songs by Laid Blak:
My Eyes Are Red

Quick tip, so you can enjoy My Eyes Are Red Tab even more:

If you don't really know how to deal with "Absus4" chord and his equally confusing brothers, just put the mouse cursor over them and you will be shown a helpful chord diagram.

Show us your talent, perform My Eyes Are Red Tab!

Here you can post a video or audio performance. Tell me more ...
Where can we find your performance? Tell me more ...
Your comment:
Please, log in to post your performance.