Artists by letter: A B C D E F G H I J K L M N O P Q R S T U V W X Y Z 0-9

 
Demonade Tab
-----------------------------------------------------------------------------
                       Demonade - Washya
-----------------------------------------------------------------------------
Tuning: E Flat (DAFCGD)
Intro
D|-----------------------------------|
A|-----------------------------|
F|--------------------------|
C|-----------------------3/4/5-|
G|-----------------------------3/4/5-|
D|-----------------------------1/2/3-|
PM                             .....

Main Riff/Chorus  (Very Cool Lick)
D|--------------------------------------------|
A|--------------------------------------------|
F|--------------------------------------------|
C|------10/9-----7\5-----8\7-5/7-----101010/9-|
G|-2-22-8-/7-7/9-5\3-3/5-6\5-3/5-5/7-8-8-8/-7-|
D|-0-00------5/7-----1/3---------3/5----------|
PM   ..

Verses (Heavy Palm Muting)
D|---------------------------------------|
A|---------------------------------------|
F|---------------------------------------|
C|---------------------------------------|
G|-2-2222-22-2--2-2222-22-2--2-2222-22-2-|
D|-0-0000-00-0--0-0000-00-0--0-0000-00-0-|
PM . .... .. .  . .... .. .  . .... .. .


 
 
Washya - Demonade Tab :: indexed at Ultimate Guitar.
Demonade tabs @ 911Tabs

Quick tip, so you can enjoy Demonade Tab even more:

YourChords.com Guitar Chords and Tabs Archive is currently indexing over 240'000 songs from 21'000+ different artists. And new chords just keep on coming in, so you will surely never run out of them.

Show us your talent, perform Demonade Tab!

Here you can post a video or audio performance. Tell me more ...
Where can we find your performance? Tell me more ...
Your comment:
Please, log in to post your performance.