Artists by letter: A B C D E F G H I J K L M N O P Q R S T U V W X Y Z 0-9

 
Life Of Leaving Home Tab
The second tab is quite ok, but this one is somehow more Yellowcard style with d-
dropped power chords. Timing is not correct at all but figure out timing by yourself. Have fun.

Intro
 e|---------------|
 B|---------------|
 G|---------------|
 D|--44-00-44-00--|
 A|--44-00-44-00--|
 D|--44-00-44-00--| x 4
    
 Verse 1
   I can see all the footsteps ...
 e|--------------------------------------------------|
 B|--------------------------------------------------|
 G|-------------------222----------------------------|
 D|--444-222-000--444-222-222-----44-22-44-22--------|
 A|--444-222-000--444-000-222-----44-22-44-22--------|
 D|--444-222-000--444-----222-----44-22-44-22--------| x 2
     *** *** ***  *** *** ***

Verse 2
   It started out in the  
 e|--------------------------------------------------|
 B|--------------------------------------------------|
 G|-------------------222----------------------------|
 D|--444-222-000--444-222-222-----44-22-44-22--------|
 A|--444-222-000--444-000-222-----44-22-44-22--------|
 D|--444-222-000--444-----222-----44-22-44-22--------| x 2
     *** *** ***  *** *** ***

Chorus
     I am awake and alive there ...
 e|-------------------|   --------------------------------------|
 B|-------------------|   --------------------------------------|
 G|------222----------|   ----------555------------222----------|
 D|--000-222-444-222--|   --000-444-xxx-000----000-222-444-222--|
 A|--000-000-444-222--|   --000-444-333-000----000-000-444-222--|
 D|--000-----444-222--|x2 --000-444-----000----000-----444-222--|x1 
   
 
 Post Chorus
 e|---------------|
 B|---------------|
 G|---------------|
 D|--44-00-44-00--|
 A|--44-00-44-00--|
 D|--44-00-44-00--| x 2

Verse 3
   Think of me when the stars come ...   
 e|--------------------------------------------------|
 B|--------------------------------------------------|
 G|-------------------222----------------------------|
 D|--444-222-000--444-222-222-----44-22-44-22--------|
 A|--444-222-000--444-000-222-----44-22-44-22--------|
 D|--444-222-000--444-----222-----44-22-44-22--------| x 2
     *** *** ***  *** *** ***

Chorus
     I am awake and alive there ...
 e|-------------------|   --------------------------------------|
 B|-------------------|   --------------------------------------|
 G|------222----------|   ----------555------------222----------|
 D|--000-222-444-222--|   --000-444-xxx-000----000-222-444-222--|
 A|--000-000-444-222--|   --000-444-333-000----000-000-444-222--|
 D|--000-----444-222--|x2 --000-444-----000----000-----444-222--|x1

Bridge
 e|---------------------------------|
 B|---------------------------------|
 G|--4444----------------------5----|
 D|--4444-0000-4444-2222---0-4-x-0--|
 A|--2222-0000-4444-2222---0-4-3-0--|
 D|-------0000-4444-2222---0-4---0--| x 2
                           ~ ~ ~ ~

Chorus
     I am awake and alive there ...
 e|-------------------|   --------------------------------------|
 B|-------------------|   --------------------------------------|
 G|------222----------|   ----------555------------222----------|
 D|--000-222-444-222--|   --000-444-xxx-000----000-222-444-222--|
 A|--000-000-444-222--|   --000-444-333-000----000-000-444-222--|
 D|--000-----444-222--|x2 --000-444-----000----000-----444-222--|x1

Outro
 e|---------------|
 B|---------------|
 G|---------------|
 D|--44-00-44-00--|
 A|--44-00-44-00--|
 D|--44-00-44-00--| x 4

 
 
Yellowcard - Life Of Leaving Home Tab :: indexed at Ultimate Guitar.
Life Of Leaving Home tabs @ 911Tabs

About the artist behind Life Of Leaving Home Tab:

Yellowcard is an alternative rock multi-platinum selling band from Jacksonville, Florida. Their music features a rare contribution to the genre, incorporating the use of a violin.

The band is not currently active and is on a self-described "indefinite hiatus."

Indexed at Wikipedia.

Show us your talent, perform Life Of Leaving Home Tab!

Here you can post a video or audio performance. Tell me more ...
Where can we find your performance? Tell me more ...
Your comment:
Please, log in to post your performance.