Artists by letter: A B C D E F G H I J K L M N O P Q R S T U V W X Y Z 0-9

Let The Flames Begin Live Tab (ver 2) - Paramore


 
Let The Flames Begin Live Tab
Paramore
Let The Flames Begin Live
Submitted by: [email protected]

Here's the video of the song
http://www.youtube.com/watch?v=JQW-CEQHXaw&feature=player_embedded

Guitar 1: Taylor
Guitar 2: Josh

Key: A

Tuning: Drop D

Intro:

Taylor: Pick the strings very fast
e|-------------------------------------------------|
B|-------------------------------------------------|
G|-------------------------------------------------|
D|-4-4-4-4-4-4-4-4-4-4-4-4-4-4-4-4-7-7-7-7-6-6-6-6-|
A|-------------------------------------------------|
D|-------------------------------------------------|

e|-------------------------------------------------|
B|-------------------------------------------------|
G|-------------------------------------------------|
D|-4-4-4-4-4-4-4-4-4-4-4-4-5-5-5-5-7-7-7-7-6-6-6-6-|
A|-------------------------------------------------|
D|-------------------------------------------------|

F#m
e|-------------------------------------------------|
B|-------------------------------------------------|
G|-------------------------------------------------|
D|-4-4-4-4-4-4-4-4-4-4-4-4-4-4-4-4-4-4-4-4-6-6-6-6-|
A|-------------------------------------------------|
D|-------------------------------------------------|

A
e|-------------------------------------------------|
B|-------------------------------------------------|
G|-------------------------------------------------|
D|-7-7-7-7-7-7-7-7-7-7-7-7-7-7-7-7-7-7-7-7-7-7-7-7-|
A|-------------------------------------------------|
D|-------------------------------------------------|

D
e|-------------------------------------------------|
B|-------------------------------------------------|
G|-------------------------------------------------|
D|-11-11-11-11-11-11-11-11-11-11-11-11-11-11-11-11-|
A|-------------------------------------------------|
D|-------------------------------------------------|

Bm
e|-------------------------------------------------|
B|-------------------------------------------------|
G|-------------------------------------------------|
D|-9-9-9-9-9-9-9-9-9-9-9-9-9-9-9-9-9-9-9-9-9-9-9-9-|
A|-------------------------------------------------|
D|-------------------------------------------------|

Josh:
e|-----------9---9-|-----------7---7-|
B|---7---7---------|---7---7---------|
G|-9---9---9---9---|-9---9---9---9---|
D|-----------------|-----------------| x2
A|-----------------|-----------------|
D|-----------------|-----------------|

Verse 1:

Taylor: Idle

Josh: x2
         F#m                A
e|-----------------|-----------------|
B|-----------------|-----------------|
G|---6---6---6---6-|---9---9---9---9-|
D|-4---4---4---4---|-7---7---7---7---|
A|-----------------|-----------------|
D|-----------------|-----------------|
         x2                 x2

D                                 Bm
e|---------------------------------|-------4---4---5---5---4---4-----|
B|---------------------------------|---------------------------------|
G|---2---4---4---6---6---4---4---4-|---4---------------------------4-|
D|-0---0---0---0---0---0---0---0---|---------------------------------|
A|---------------------------------|-2---2---2---2---2---2---2---2---|
D|---------------------------------|---------------------------------|

Refrain 1:

Both Josh & Taylor:
                 D
e|---------------------------------|
B|---------------------------------|
G|---------------------------------|
D|-0-0-0-0-0-0-0-0-0-0-0-0-0-0-0-0-|
A|-0-0-0-0-0-0-0-0-0-0-0-0-0-0-0-0-|
D|-0-0-0-0-0-0-0-0-0-0-0-0-0-0-0-0-|

Bm
e|------------------------|
B|------------------------|
G|------------------------|
D|-9-9-9-9-9-9-9-9-9------|
A|-9-9-9-9-9-9-9-9-9-stop-|
D|-9-9-9-9-9-9-9-9-9------|

Chorus 1: h=hammer, p=pull off

Taylor: Listen to the timing of the song
e|-------------------------4h5p4---|
B|-----------------5---5---------5-|
G|-1h2p1---1h2-4-----4---4---------|
D|-------2-------2-----------------|
A|---------------------------------|
D|---------------------------------|

Josh:
                F#m
e|---------------------------------|
B|---------------------------------|
G|---------------------------------|
D|-4-4-4-4-4-4-4-4-4-4-4-4-4-4-4-4-|
A|-4-4-4-4-4-4-4-4-4-4-4-4-4-4-4-4-|
D|-4-4-4-4-4-4-4-4-4-4-4-4-4-4-4-4-|

A
e|---------------------------------|
B|---------------------------------|
G|---------------------------------|
D|-7-7-7-7-7-7-7-7-7-7-7-7-7-7-7-7-|
A|-7-7-7-7-7-7-7-7-7-7-7-7-7-7-7-7-|
D|-7-7-7-7-7-7-7-7-7-7-7-7-7-7-7-7-|

D
e|---------------------------------|
B|---------------------------------|
G|---------------------------------|
D|-0-0-0-0-0-0-0-0-0-0-0-0-0-0-0-0-|
A|-0-0-0-0-0-0-0-0-0-0-0-0-0-0-0-0-|
D|-0-0-0-0-0-0-0-0-0-0-0-0-0-0-0-0-|

Bm
e|---------------------------------|
B|---------------------------------|
G|---------------------------------|
D|-9-9-9-9-9-9-9-9-9-9-9-9-9-9-9-9-|
A|-9-9-9-9-9-9-9-9-9-9-9-9-9-9-9-9-|
D|-9-9-9-9-9-9-9-9-9-9-9-9-9-9-9-9-|

Verse 2:

Taylor: he will become idle at 2nd turn
         F#m                A
e|-9-----9-----9---|-7-----7-----7---|
B|---7-----7-----7-|---7-----7-----7-|
G|-----9-----9-----|-----9-----9-----|
D|-----------------|-----------------|
A|-----------------|-----------------|
D|-----------------|-----------------|
          x2                x2

D                 Bm
e|-9-----9-----9---|-7-----7-----7---|
B|---7-----7-----7-|---7-----7-----7-|
G|-----9-----9-----|-----9-----9-----|
D|-----------------|-----------------|
A|-----------------|-----------------|
D|-----------------|-----------------|
          x2                x2

Josh: will only enter at 2nd turn
          F#m         A         D      Bm
e|---|---5--0----|--------|---5--0----|-2-|
B|---|-2-------2-|--0-----|-2-------2-|---|
G|-2-|-----------|-----2--|-----------|---|
D|---|-----------|--------|-----------|---|
A|---|-----------|--------|-----------|---|
D|---|-----------|--------|-----------|---|

Refrain 2:

Taylor: Idle

Josh:
          D                 Bm                        E
e|-----------------|-----------------|-0---0-----------0---2---0-------|
B|-2---2---2---2---|-0---0-----------|-----------------------------2---|
G|-----------------|---------2---1---|---------1---2-------------------|
D|---0---0---0---0-|-----------------|---2---2---2---2---2---2---2---2-| x2
A|-----------------|---2---2---2---2-|---------------------------------|
D|-----------------|-----------------|---------------------------------|

Chorus 2: Very similar to Chorus 1, just x2 instead of x1

Bridge:

Taylor: will enter at 2nd turn, pluck the strings very fast x3
                  F#m
e|-9-9-9-9-9-9-9-9-9-9-9-9-10-10-10-10-|
B|-------------------------------------|
G|-------------------------------------|
D|-------------------------------------|
A|-------------------------------------|
D|-------------------------------------|

A
e|-9-9-9-9-9-9-9-9-9-9-9-9-10-10-10-10-|
B|-------------------------------------|
G|-------------------------------------|
D|-------------------------------------|
A|-------------------------------------|
D|-------------------------------------|

D
e|-9-9-9-9-9-9-9-9-9-9-9-9-10-10-10-10-|
B|-------------------------------------|
G|-------------------------------------|
D|-------------------------------------|
A|-------------------------------------|
D|-------------------------------------|

Bm
e|-5-5-5-5-5-5-5-5-5-5-5-5-4-4-4-4-|
B|---------------------------------|
G|---------------------------------|
D|---------------------------------|
A|---------------------------------|
D|---------------------------------|

Josh: x5
                 F#m                               A
e|-9------------------------------|-9------------------------------|
B|---7----------------------------|---7----------------------------|
G|-----9---9----------------------|-----9---9----------------------|
D|-------------7-7-6-7------------|-------------7-7-6-7------------|
A|-------9---9---------9-9--9-9-9-|-------9---9---------9-9--9-9-9-|
D|--------------------------------|--------------------------------|

D                    Bm
e|-9------------------------------|---------|
B|---7----------------------------|---------|
G|-----9---9----------------------|---------|
D|-------------7-7-6-7------------|-6--7--9-|
A|-------9---9---------9-9--9-9-9-|---------|
D|--------------------------------|---------|

(Repeat Chorus 2)

Outro: Almost similar to Bridge

Taylor: Idle at 1st 2 turns, will enter at 3rd turn x5
                  F#m
e|-9-9-9-9-9-9-9-9-9-9-9-9-10-10-10-10-|
B|-------------------------------------|
G|-------------------------------------|
D|-------------------------------------|
A|-------------------------------------|
D|-------------------------------------|

A
e|-9-9-9-9-9-9-9-9-9-9-9-9-10-10-10-10-|
B|-------------------------------------|
G|-------------------------------------|
D|-------------------------------------|
A|-------------------------------------|
D|-------------------------------------|

D
e|-9-9-9-9-9-9-9-9-9-9-9-9-10-10-10-10-|
B|-------------------------------------|
G|-------------------------------------|
D|-------------------------------------|
A|-------------------------------------|
D|-------------------------------------|

Bm
e|-5-5-5-5-5-5-5-5-5-5-5-5-4-4-4-4-|
B|---------------------------------|
G|---------------------------------|
D|---------------------------------|
A|---------------------------------|
D|---------------------------------|

Josh:

F#m
e|-9------------------------------|---------|
B|---7----------------------------|---------|
G|-----9---9----------------------|---------|
D|-------------7-7-6-7------------|-6--7--9-| x2
A|-------9---9---------9-9--9-9-9-|---------|
D|--------------------------------|---------|

F#m                               A
e|-9------------------------------|-9------------------------------|
B|---7----------------------------|---7----------------------------|
G|-----9---9----------------------|-----9---9----------------------|
D|-------------7-7-6-7------------|-------------7-7-6-7------------|
A|-------9---9---------9-9--9-9-9-|-------9---9---------9-9--9-9-9-|
D|--------------------------------|--------------------------------|

D                    Bm
e|-9------------------------------|---------|
B|---7----------------------------|---------|
G|-----9---9----------------------|---------|
D|-------------7-7-6-7------------|-6--7--9-|
A|-------9---9---------9-9--9-9-9-|---------|
D|--------------------------------|---------|

F#m                               A
e|-9------------------------------|-9------------------------------|
B|---7----------------------------|---7----------------------------|
G|-----9---9----------------------|-----9---9----------------------|
D|-------------7-7-6-7------------|-------------7-7-6-7------------|
A|-------9---9---------9-9--9-9-9-|-------9---9---------9-9--9-9-9-|
D|--------------------------------|--------------------------------|

D                    Bm
e|-9------------------------------|---------|
B|---7----------------------------|---------|
G|-----9---9----------------------|---------|
D|-------------7-7-6-7------------|-6--7--9-|
A|-------9---9---------9-9--9-9-9-|---------|
D|--------------------------------|---------|

F#m                               A
e|-9------------------------------|-9------------------------------|
B|---7----------------------------|---7----------------------------|
G|-----9---9----------------------|-----9---9----------------------|
D|-------------7-7-6-7------------|-------------7-7-6-7------------|
A|-------9---9---------9-9--9-9-9-|-------9---9---------9-9--9-9-9-|
D|--------------------------------|--------------------------------|

D                    Bm
e|-9------------------------------|---------|
B|---7----------------------------|---------|
G|-----9---9----------------------|---------|
D|-------------7-7-6-7------------|-6--7--9-|
A|-------9---9---------9-9--9-9-9-|---------|
D|--------------------------------|---------|

Then Hayley sings "Oh Father"

Taylor:
               F#m
e|-5----5----4-----------------|
B|----------------7----5-------|
G|-------------------------6---|
D|----4----4----4----4---4---4-| x4
A|-----------------------------|
D|-----------------------------|

F#m                             A
e|-5----5----4-----------------|-5----5----4------------------|
B|----------------7----5-------|----------------7----5--------|
G|-------------------------6---|--------------------------6---|
D|----4----4----4----4---4---4-|----4----4----4----4----4---4-|
A|-----------------------------|------------------------------|
D|-----------------------------|------------------------------|

D                              Bm
e|-5----5----4-----------------|-5----5----4------------------|
B|----------------7----5-------|----------------7----5--------|
G|-------------------------6---|--------------------------6---|
D|----4----4----4----4---4---4-|----4----4----4----4----4---4-|
A|-----------------------------|------------------------------|
D|-----------------------------|------------------------------|

F#m                             A
e|-5----5----4-----------------|-5----5----4------------------|
B|----------------7----5-------|----------------7----5--------|
G|-------------------------6---|--------------------------6---|
D|----4----4----4----4---4---4-|----4----4----4----4----4---4-|
A|-----------------------------|------------------------------|
D|-----------------------------|------------------------------|

D                              Bm
e|-5----5----4-----------------|-12----12----12----12----14----14----14----14----|
B|----------------7----5-------|----10----10----10----10----12----12----12----12-|
G|-------------------------6---|-------------------------------------------------|
D|----4----4----4----4---4---4-|-------------------------------------------------|
A|-----------------------------|-------------------------------------------------|
D|-----------------------------|-------------------------------------------------|

Josh: Same Chorus Chords, x4
                F#m
e|---------------------------------|
B|---------------------------------|
G|---------------------------------|
D|-4-4-4-4-4-4-4-4-4-4-4-4-4-4-4-4-|
A|-4-4-4-4-4-4-4-4-4-4-4-4-4-4-4-4-|
D|-4-4-4-4-4-4-4-4-4-4-4-4-4-4-4-4-|

A
e|---------------------------------|
B|---------------------------------|
G|---------------------------------|
D|-7-7-7-7-7-7-7-7-7-7-7-7-7-7-7-7-|
A|-7-7-7-7-7-7-7-7-7-7-7-7-7-7-7-7-|
D|-7-7-7-7-7-7-7-7-7-7-7-7-7-7-7-7-|

D
e|---------------------------------|
B|---------------------------------|
G|---------------------------------|
D|-0-0-0-0-0-0-0-0-0-0-0-0-0-0-0-0-|
A|-0-0-0-0-0-0-0-0-0-0-0-0-0-0-0-0-|
D|-0-0-0-0-0-0-0-0-0-0-0-0-0-0-0-0-|

Bm
e|---------------------------------|
B|---------------------------------|
G|---------------------------------|
D|-9-9-9-9-9-9-9-9-9-9-9-9-9-9-9-9-|
A|-9-9-9-9-9-9-9-9-9-9-9-9-9-9-9-9-|
D|-9-9-9-9-9-9-9-9-9-9-9-9-9-9-9-9-|
 
 
Paramore - Let The Flames Begin Live Tab :: indexed at Ultimate Guitar.
Let The Flames Begin Live tabs @ 911Tabs

About the artist behind Let The Flames Begin Live Tab:

Paramore (IPA: /'pærəmɔər/) is an American rock band that formed in Franklin, Tennessee in 2004 consisting of Hayley Williams (lead vocals/keyboard), Josh Farro (lead guitar/backing vocals), Jeremy Davis (bass guitar), and Zac Farro (drums). The group released their debut album All We Know Is Falling in 2005, and their second album Riot! in 2007, which was certified gold in the US and the UK.

Indexed at Wikipedia.

Show us your talent, perform Let The Flames Begin Live Tab!

Here you can post a video or audio performance. Tell me more ...
Where can we find your performance? Tell me more ...
Your comment:
Please, log in to post your performance.