Artists by letter: A B C D E F G H I J K L M N O P Q R S T U V W X Y Z 0-9

Tequila Sunrise Chords (ver 4) - Eagles


 
Tequila Sunrise Chords
Tequila Sunrise
The Eagles

Chords:
    
   E-A-D-G-B-e
G  3-2-0-0-0-3
G6 3-x-2-0-0-3
Am x-0-2-2-1-0
D7 x-x-0-2-1-2
D  x-x-0-2-3-2
Bm x-2-4-4-3-2 (Bar Chord)
E  0-2-2-1-0-0
B7 0-2-1-2-0-2
Em 0-2-2-0-0-0
A  x-0-2-2-2-0
C  x-3-2-0-1-0

strumming:
down-down-up---up-down-up

Play following every time when you have to play G:
strumming:    down down up down  up  down  up    down up
           e-|--3----3---3---3---3----3----3-----3----3--|
           B-|--0----0---0---0---0----0----0-----0----0--|
           G-|--0----0---0---0---0----0----0-----0----0--|
           D-|--0----0---0---0---2----2----2-----0----0--|
           A-|--2----2---2---2---x----x----x-----2----2--|
           E-|--3----3---3---3---3----3----3-----3----3--|

Intro:
G G G Am D7 G G

Verse 1 and 2:

G                 
It's another Tequila Sunrise 
D                         Am
starin' slowly 'cross the sky
D7
said goodbye
G
He was just a hired hand
D                                Am       
Workin' on a dream he planned to try
D7
The days go by

Chorus:
Em                   C
Every night when the sun goes down
Em           C                  Em
Just another lonely boy in town
Am                  D7
She's out runnin' round

Verse 3 and 4:
G                   
She wasn't just another woman
D                               Am
And I couldn't keep from comin' on
D7
It's been so long
G       
Oh and it's a hollow feelin'
D                               Am
When it comes down to dealin' friends
D7         G
It never ends

Solo:

G                                                    D
e-|--7--7-7---8----10--10-10--10--10---12---10---8----7---5--5-5--5--5-----|
B-|--8--8-8---10---12--12-12--12--12---13---12---10---8---7--7-7--7--7-----|
G-|-------------------------------------------------------7--7-7--7--7-----|
D-|------------------------------------------------------------------------|
A-|------------------------------------------------------------------------|
E-|------------------------------------------------------------------------|

D                 Am             D7             G
e-|-7h8--7--6--5--4--3-----------------------------------------------10h12-|
B-|-9h10-9--8--7--6--5--------------------------------3h5p3----------10h12-|
G-|---------------------------0-2-4-2~-------0-2-4-0--------5-4-2-0--------|
D-|---------------------0-2-4----------0-2-4-------------------------------|
A-|------------------------------------------------------------------------|
E-|------------------------------------------------------------------------|

Bridge:
Am             D
Take another shot of courage
Bm               E                 Am   B7 
Wonder why the right words never come
B7             Em          A 
You just get numb

Verse 5:
G
It's another tequila sunrise
D                               Am
This old world still looks the same
D7        G
Another frame

G           G(let ring)
   (uuuuh)

Outro:

e-|--12--10--9------10--9-------------------------3---|
B-|-------------12---------12--10--9--------------3---|
G-|-----------------------------------11--9-------0---|
D-|------------------------------------------12---0---|
A-|-----------------------------------------------2---|
E-|-----------------------------------------------3---|
 
 
Eagles - Tequila Sunrise Chords :: indexed at Ultimate Guitar.
Tequila Sunrise tabs @ 911Tabs

About the artist behind Tequila Sunrise Chords:

The Eagles are an American rock band that was formed in Los Angeles, California, in the early 1970s. With five Number 1 singles and six Number 1 albums, the Eagles were one of the most successful recording artists of the decade. At the end of the 20th century, two of their albums, Eagles: Their Greatest Hits 1971–1975 and Hotel California, ranked among the ten best-selling albums according to the Recording Industry Association of America. The best-selling studio album Hotel California is rated as the thirty-seventh album in the Rolling Stone list "The 500 Greatest Albums of All Time", and the band was ranked number 75 on Rolling Stone's 2004 list of the 100 Greatest Artists of All Time.[1] They are also the best-selling American group ever, with Eagles: Their Greatest Hits 1971–1975 being the best-selling album in the U.S. to date.[2][3]

The Eagles broke up in 1980, but reunited in 1994 for Hell Freezes Over, a mix of live and new studio tracks. They have toured intermittently since then, and were inducted into the Rock and Roll Hall of Fame in 1998.

In 2007, the Eagles released Long Road out of Eden, their first full studio album in 28 years.

Indexed at Wikipedia.

Show us your talent, perform Tequila Sunrise Chords!

Here you can post a video or audio performance. Tell me more ...
Where can we find your performance? Tell me more ...
Your comment:
Please, log in to post your performance.