Artists by letter: A B C D E F G H I J K L M N O P Q R S T U V W X Y Z 0-9

 
We Are Darkbuster Tab
Tabbed by: Phayzze

Great song by a great band.  Noticed there weren't many tabs on here for them so I
though I'd give this a shot.

Tuning: Standard

b=bend
*=pinch harmonic

Verse
E------------------------------------|
B------------------------------5--5--|
G-7-7-7-7-7-7-7-7-----5--5-----5--5--|
D-7-7-7-7-7-7-7-7-----5--5-----3--3--|
E-5-5-5-5-5-5-5-5-----3--3-----------| x6

Guitar Solo 1

E-----9b*-------------9b*-------------------------------|
B----------10-9-----------------------------------------|
G----------------9*-------------------------------------|
D-------------------------------------------------------|
E-------------------------------------------------------|

Verse
E--------------------------------------|
B------------------------------5--5----|
G-7-7-7-7-7-7-7-7-----5--5-----5--5----|
D-7-7-7-7-7-7-7-7-----5--5-----3--3----|
E-5-5-5-5-5-5-5-5-----3--3-------------|   x4

(bass solo)

Verse
E--------------------------------------|
B------------------------------5--5----|
G-7-7-7-7-7-7-7-7-----5--5-----5--5----|
D-7-7-7-7-7-7-7-7-----5--5-----3--3----|
E-5-5-5-5-5-5-5-5-----3--3-------------|   x4

Guitar solo 2
E--12-15-13-12-15-13-12-15-13-12-15-13-------------|
B--------------------------------------------------|
G--------------------------------------------------|
D--------------------------------------------------|
E---------------------------------------------15b--|

There's something going on between before the bend on the low E, but I can't tell
exactly what is being played, just make some noise.

Verse
E-------------------------------------|
B------------------------------5--5---|
G-7-7-7-7-7-7-7-7-----5--5-----5--5---|
D-7-7-7-7-7-7-7-7-----5--5-----3--3---|
E-5-5-5-5-5-5-5-5-----3--3------------|  x4
End
E-------------------|
B-------------------|
G-7---7---7---7---7-|
D-7---7---7---7---7-|
E-5---5---5---5---5-|

And that's it!  This was my first tab, so If anything sounds wrong, send me a PM over at 
the forums.
 
 
Darkbuster - We Are Darkbuster Tab :: indexed at Ultimate Guitar.
We Are Darkbuster tabs @ 911Tabs
People who played Darkbuster - We Are Darkbuster Tab also played these songs by Darkbuster:
Skinhead Tab, Bomb Chords, Hell On Wheels Tab, Whiskey Will Tab, Irish Tab, Cheap Wine Tab

Quick tip, so you can enjoy We Are Darkbuster Tab even more:

If you spend just 10 seconds to register, you will be able to comment on all the chords and tabs and rate them. You will as well be able to comment on videos of your fellow guitarists and give them ratings from 1 to 5 ... And - of course - you can share your own videos with them and see what they think of you. :)
Click here to join us!

Show us your talent, perform We Are Darkbuster Tab!

Here you can post a video or audio performance. Tell me more ...
Where can we find your performance? Tell me more ...
Your comment:
Please, log in to post your performance.