Artists by letter: A B C D E F G H I J K L M N O P Q R S T U V W X Y Z 0-9

 
Bite My Tongue Tab
This is my first tab so hope you like it, this is a mixture of the lead and rythmn
guitar can't figure out the lead in the verse and chorus so this will do. To me this is 
very accurate.

Drop D Tuning (DADGBE)

Any corrections or tab requests email me at [email protected]

Verse 1

E|-------------------------------------------------|
B|-------------------------------------------------|
G|-------------------------------------------------|
D|--9-9-9-9-9-9-9-9-11-11-11-11-12-12-12-12--------|       x2
A|--7-7-7-7-7-7-7-7-9--9--9--9--10-10-10-10--------|
D|-------------------------------------------------|
PM  . . . . . . . . .  .  .  .  .  .  .  .

E|-------------------------------------------------------|
B|-------------------------------------------------------|
G|-----------------------------------------------7-7-7-7-|
D|--5-5-5-5-5-5-5-5-5-5-2-2-2-2-2-2-2-(x2)-then--7-7-7-7-|
A|--3-3-3-3-3-3-3-3-0-0-0-0-0-0-0-0-0------------5-5-5-5-|
D|-------------------------------------------------------|
PM  . . . . . . . . . . . . . . . . .

Play the verse section 3 times

Chorus

E|-----------------------------------------------------------------|
B|-----------------------------------------------------------------|
G|---------------------------------5-5-5-5-5-5-5-5-2-2-2-2-2-2-2-2-|
D|-2-2-2-2-2-2-2-2-5-5-5-5-5-5-5-5-5-5-5-5-5-5-5-5-2-2-2-2-2-2-2-2-|
A|-2-2-2-2-2-2-2-2-5-5-5-5-5-5-5-5-3-3-3-3-3-3-3-3-0-0-0-0-0-0-0-0-|
D|-2-2-2-2-2-2-2-2-5-5-5-5-5-5-5-5---------------------------------|

E|-----------------------------------------------------------------|
B|-----------------------------------------------------------------|
G|---------------------------------2-2-2-2-2-2-2-2-5-5-5-5-5-5-5-5-|
D|-2-2-2-2-2-2-2-2-5-5-5-5-5-5-5-5-2-2-2-2-2-2-2-2-5-5-5-5-5-5-5-5-|
A|-2-2-2-2-2-2-2-2-5-5-5-5-5-5-5-5-0-0-0-0-0-0-0-0-3-3-3-3-3-3-3-3-|
D|-2-2-2-2-2-2-2-2-5-5-5-5-5-5-5-5---------------------------------|

2nd Verse

E|----------------------------------------------------------------|
B|----------------------------------------------------------------|
G|----------------5-5-5-5-5-5-5-5-----------------5-5-5-5-7-7-7-7-|
D|-2-2--2-2--2-2-------------------2-2--2-2--2-2------------------|
A|-2-2--2-2--2-2-------------------2-2--2-2--2-2------------------|
D|-2-2--2-2--2-2-------------------2-2--2-2--2-2------------------|

E|----------------------------------------------------|
B|----------------------------------------------------|
G|-5-5-5-5-5-5-5-5-5-5-5-5-2-2-2-2-2-2-2-2-2-2--------|
D|-5-5-5-5-5-5-5-5-5-5-5-5-2-2-2-2-2-2-2-2-2-2--0---0-|
A|-3-3-3-3-3-3-3-3-3-3-3-3-0-0-0-0-0-0-0-0-0-0--0---0-|
D|----------------------------------------------0---0-|
PM                                              .

Play verse 2 twice, then end on 2nd fret powerchord

Chorus x1

Breakdown

E|-------------------------------------|
B|------------3-3----3-3----3-3-3-3----|
G|-------------------------------------|   x6
D|-2--2--------------------------------|
A|-2--2--------------------------------|
D|-2--2--------------------------------|

The notes on the B string are probably played seperate to the powerchords but I play
them both so whatever you want really.

Breakdown/Bridge

E|--------------------------------------|
B|--------------------------------------|
G|-----7-7-7-7-----7-7-7-7---7-7-7-7----|
D|-2-2-7-7-7-7-2---7-7-7-7-2-7-7-7-7----|   X8
A|-2-2-5-5-5-5-2---5-5-5-5-2-5-5-5-5----|
D|-2-2---------2-----------2------------|

Then play the chorus twice, each time palm mute the first two powerchords at 2nd fret.

Then finish off with this

E|------------------------|
B|------------------------|
G|------------------------|
D|-2-2--2-----------------|
A|-2-2--2-----------------|
D|-2-2--2-----------------|
PM . .

Order of Song

Verse 1 x3
Chorus
Verse 2 x2
Chorus
Breakdown x6
Breakdown/Bridge x8
Chorus x2
 
 
You Me At Six - Bite My Tongue Tab :: indexed at Ultimate Guitar.
Bite My Tongue tabs @ 911Tabs

Quick tip, so you can enjoy Bite My Tongue Tab even more:

YourChords.com Guitar Chords and Tabs Archive is currently indexing over 240'000 songs from 21'000+ different artists. And new chords just keep on coming in, so you will surely never run out of them.

Show us your talent, perform Bite My Tongue Tab!

Here you can post a video or audio performance. Tell me more ...
Where can we find your performance? Tell me more ...
Your comment:
Please, log in to post your performance.