Artists by letter: A B C D E F G H I J K L M N O P Q R S T U V W X Y Z 0-9

 
District 24 - One More Day Tab
DISTRICT 24 - ONE MORE DAY

INTRO:

------0-----------0--------------0------------0---------|
----3---3-------3---3----------3---3--------3---3-------|
--0-------0---2-------2------0-------0----0-------0-----|
2-----------0-----------0-------------------------------|
--------------------------3-------------2---------------|
--------------------------------------------------------| x2

VERSE:

--3----3-------2-----2---------3-----3-------2-----2------------|
----3----3-------3-----3---------3-----3-------3-----3----------|
------0----0-------2-----2---------0-----0-------0-----0--------|
2------------0--------------------------------------------------|
-------------------------------------------2--------------------|
----------------------------3-----------------------------------|

CHORUS:

D    D   G    A

(verse)
It is a new day. I made one more day. Will I see tomorrow? I gusted really I can not 
say. As life goes on everything change. Grow older grow stronger, but thing still aint the same.
(Chores)
Day by day we say it same every day. But if you take a look around you will see the change.
Little by little, New people new place. We don't evening realized how thing have change.
(Verse 2)
The sun almost up, the night is almost over. It time start a new day. The pass I have. 
The thing I done will never come back I know that. I remember you, the thing we done, the 
time we had it was so much fun. Time had passed and now I am gone. I be lucky to see them aging.
 
 
Misc Unsigned Bands - District 24 - One More Day Tab :: indexed at Ultimate Guitar.
District 24 - One More Day tabs @ 911Tabs

Quick tip, so you can enjoy District 24 - One More Day Tab even more:

Try out the AutoScroller option ... It scrolls the page for you, so you can totally focus on nailing that solo. You can choose among different speeds using your mouse or your keyboard (keys 0, 1, 2 and 3).

Show us your talent, perform District 24 - One More Day Tab!

Here you can post a video or audio performance. Tell me more ...
Where can we find your performance? Tell me more ...
Your comment:
Please, log in to post your performance.