Artists by letter: A B C D E F G H I J K L M N O P Q R S T U V W X Y Z 0-9

 
I Wont Give Up Tab
--------------------------------------------------------------------------------              
I wont give up- Jason Mraz
---------------------------------------------------------------------------------
is isn't exactly how he plays is cause I learn t it by ear and by watching him 
play it. But I hope it helps.

Tuning: standard
Capo: 2nd fret

Chords used:
   G D B Asus2 Em C E
e|-3-2-2-0-----0--0-0-----------------------------------------------|
B|-3-3-3-0-----0--1-0-----------------------------------------------|
G|-4-2-4-2-----0--0-1-----------------------------------------------|
D|-5-0-4-2-----2--2-2-----------------------------------------------|
A|-5---2-0-----2--3-2-----------------------------------------------|
E|-3-----------0----0-----------------------------------------------|

Intro:
e|------------------------------------------------------------------|
B|-------------------------------------------------------------0h2--|
G|---------------4-4---2-2---2-2--------------------2-2-2--2---2----|
D|0-0-0---2-4----5-5---0-0---0-0--x3---0-0-0--2-4--2-2-2--2--------|
A|---------------5---5-----0------------------------0----0---0------|
E|------------------------------------------------------------------|

e|--------------------------------------------------------|
B|--------------------------------------------------------|
G|-2------------------------------------------------------|
D|-2------------------------------------------------------|x2
A|---0----------------------------------------------------|
E|--------------------------------------------------------|

Verse:
e|------------------------------------------------------------------|
B|-------------------------------------------------------------0h2--|
G|---------------4-4---2-2---2-2--------------------2-2-2--2---2----|
D|0-0-0---2-4----5-5---0-0---0-0--x3---0-0-0--2-4--2-2-2--2--------|
A|---------------5---5-----0------------------------0----0---0------|
E|------------------------------------------------------------------|

e|--------------------------------------------------------|
B|--------------------------------------------------------|
G|-2------------------------------------------------------|
D|-2------------------------------------------------------| x2
A|---0----------------------------------------------------|
E|--------------------------------------------------------|

Chorus: G, D, B, Asus2, G, D, Asus2
Verse: x1
Chorus
Bridge: Em, Asus2, Em, Asus2, C, E, C, E, D
Chorus
Verse:x1
Chorus: x3
Outro: G, D, G, D, G and end on D





This is how I play it in the video but I've found a different way to play the verses and 
intro that sounds a bit closer to what he's playing:

e|------------------------------------------------------------------|
B|------------------------------------------3-3---3-3--2------------|
G|-----------4-4---2-2---2------------------2----------2------------|
D|-0-0-0-2-4-5-----0---------x3--0-0-4-2-0--0---0----0--------------|
A|-----------5---5-----0--------------------------------------------|
E|------------------------------------------------------------------|

e|------------------------------------------------------------------|
B|------------------------------------------------------------------|
G|------------------------------------------------------------------|
D|------------------------------------------------------------------|
A|------------------------------------------------------------------|
E|------------------------------------------------------------------|



************************************
| /   slide up
| \   slide down
| h   hammer-on
| p   pull-off
| ~   vibrato
| +   harmonic
| x   Mute note
| b   Bend
| pb  Pre-bend
| br  Bend release
| pbr Pre-bend release
| brb Bend release bend
************************************
 
 
Jason Mraz - I Wont Give Up Tab :: indexed at Ultimate Guitar.
I Wont Give Up tabs @ 911Tabs

About the artist behind I Wont Give Up Tab:

Jason Thomas Mraz (pronounced /'dʒeɪsən ˈɱɹæz/; born June 23, 1977) is an American singer-songwriter, born and raised in Mechanicsville, Virginia, a suburb of Richmond.[1]

Mraz is an eclectic artist with multiple and varied stylistic influences, including pop, rock, folk, jazz, country, and hip hop. He has played with various artists, including The Rolling Stones, Bob Dylan, Dave Matthews Band, James Blunt, Gavin DeGraw, Paula Cole, John Popper, Alanis Morissette, The Ohio Players, Rachael Yamagata, Jewel and Colbie Caillat.[citation needed]

Indexed at Wikipedia.

Show us your talent, perform I Wont Give Up Tab!

Here you can post a video or audio performance. Tell me more ...
Where can we find your performance? Tell me more ...
Your comment:
Please, log in to post your performance.