Artists by letter: A B C D E F G H I J K L M N O P Q R S T U V W X Y Z 0-9

 
Flatline Tab
-------------------------------------------------------------------------------
			     Duff McKagan's LOADED - FLATLINE
-------------------------------------------------------------------------------
Tabbed by: Susan

Tuning: C#,G#,C#, F#, A#, D#

***NOTE THE ALTERNATE TUNING****

INTRO
e|---------------------------------------------------------------------------|
B|-7--8--3--5---7--3--5--8---------------------------------------------------|
G|-7--5--3--5---7--3--5--5---------------------------------------------------|
D|-0--0--0--0---0--0--0--0---------------------------------------------------|
A|---------------------------------------------------------------------------|
E|---------------------------------------------------------------------------|

Verse (repeats)
e|---------------------------------------------------------------------------|
B|---------------------------------------------------------------------------|
G|-7--5--5-------------------------------------------------------------------|
D|-7--5--5-------------------------------------------------------------------|
A|-5--3--3--5--4--5--4--3--0-------------------------------------------------|
E|----------5--4--5--4--3--0-------------------------------------------------|

SOLO 1
e|---------------------------------------------------------------------------|
B|-13b--------12 (b up b down)-10-------12(b up then down)--10---------------|
G|-----11-12---------------------11---------------------------11----11-12h---|
D|----------------------------------10---------------------------9---------12|
A|---------------------------------------------------------------------------|
E|---------------------------------------------------------------------------|

Prechorus
e|---------------------------------------------------------------------------|
B|---------------------------------------------------------------------------|
G|--------------------5------------------------------------------------------|
D|--------------------5------------------------------------------------------|
A|-5-5-5-5-8--5-5-5-5-3------------------------------------------------------|
E|-5-5-5-5-8--5-5-5-5--------------------------------------------------------|

Basic chorus Pattern
e|---------------------------------------------------------------------------|
B|---------------------------------------------------------------------------|
G|-7-5-3-5-------------------------------------------------------------------|
D|-7-5-3-5-------------------------------------------------------------------|
A|-5-3-1-3-------------------------------------------------------------------|
E|---------------------------------------------------------------------------|

SOLO 2:
e|-13b-10-12-13-12-13hp-12------------------13-----15b-15pb-15pb-15pbr-13----|
B|-------------------------13-/15-15-15p-13----15h----------------------15-15|
G|---------------------------------------------------------------------------|
D|---------------------------------------------------------------------------|
A|---------------------------------------------------------------------------|
E|---------------------------------------------------------------------------|

Bridge (I'm so sick of it...) x 2
e|---------------------------------------------------------------------------|
B|---------------------------------------------------------------------------|
G|---------------------------------------------------------------------------|
D|---------------------------------------------------------------------------|
A|-5-5-5-5-5-5-5-5-8-8-8-8-8-8-8-8-------------------------------------------|
E|-5-5-5-5-5-5-5-5-8-8-8-8-8-8-8-8-------------------------------------------|

Main SOLO
e|---------------------------------------------------------------------------|
B|--------------------------10-11--------------------------------------------|
G|--9b-9 (b up b down)-7-12-------9-7----------------------------------------|
D|---------------------------------------------------------------------------|
A|---------------------------------------------------------------------------|
E|---------------------------------------------------------------------------|

Then play some fast scales, I didn't figure that part out note for note

Main SOLO END
e|-15b-13----------------------5-----------------------------------------|
B|--------15-------10-8-------6--6~------------------------------------------|
G|-----------/7-10---------/7------------------------------------------------|
D|---------------------------------------------------------------------------|
A|---------------------------------------------------------------------------|
E|---------------------------------------------------------------------------|

************************************

| /   slide up
| \   slide down
| h   hammer-on
| p   pull-off
| ~   vibrato
| +   harmonic
| x   Mute note
| b   Bend
| pb  Pre-bend
| br  Bend release
| pbr Pre-bend release
| brb Bend release bend

************************************
 
 
Duff Mckagans Loaded - Flatline Tab :: indexed at Ultimate Guitar.
Flatline tabs @ 911Tabs
People who played Duff Mckagans Loaded - Flatline Tab also played these songs by Duff Mckagans Loaded:
Sleaze Factory Tab, Iou Chords, Flatline Tab, Sick Tab, Seattlehead Tab, Iou Tab

Quick tip, so you can enjoy Flatline Tab even more:

If you don't really know how to deal with "Absus4" chord and his equally confusing brothers, just put the mouse cursor over them and you will be shown a helpful chord diagram.

Show us your talent, perform Flatline Tab!

Here you can post a video or audio performance. Tell me more ...
Where can we find your performance? Tell me more ...
Your comment:
Please, log in to post your performance.