Artists by letter: A B C D E F G H I J K L M N O P Q R S T U V W X Y Z 0-9

 
Freddiew - Noob Slayer Tab
Noob Slayer - freddiew
http://www.youtube.com/watch?v=mTS16klgqMU

Tabbed by: Z13J
Email: [email protected]

Standard Tuning

Version 1.0 - Added guitar part from 0:50 - 1:11
Version 1.1 - Fixed Guitar part from 0:58 - 1:02
Version 1.2 - Added Rhythm Guitar from 0:
Version 1.3 - Added Bass part from 0:

\\\\\\\\
|-BASS-|
////////

G|------------------------------------------------------------------------|\
D|---7-------------9-----------------12-----------------3--------5--------| \
A|------------------------------------------------------------------------| /x2
E|5----5--5--5--7-----7---7---7--10------10--10--10--1-----1--3----3------|/

\\\\\\\\
|RHYTHM|
////////

e|------------------------------------------------------------|\
B|------------------------------------------------------------| \ 
G|------------------------------------------------------------|  \ Repeat Through Song
D|-7---------9---------12--------3---5------------------------|  /
A|-7---------9---------12--------3---5------------------------| /
E|-5---------7---------10--------1---3------------------------|/

\\\\\\\\
|-LEAD-|
////////

0:50 - 1:02

e|---------------------------------8-------------------------------------|
B|8-10-10-10-10-8-10-10-10-10-8-10--8-10-10-10-10-8-10-10-10-10-8-10-----|
G|------------------------------------------------------------------9----|
D|-----------------------------------------------------------------------| x2
A|-----------------------------------------------------------------------|
E|-----------------------------------------------------------------------|

Not sure about this part, comment on it below.

0:58 - 1:02

e|--------------------------------10-------------------------------------|
B|10-12-12-12-12-10-12-12-12-10-12--10-12-12-12-12-12-10-12-12-12-11-13--|
G|---------------------------------------------------------------------12|
D|-----------------------------------------------------------------------|
A|-----------------------------------------------------------------------|
E|-----------------------------------------------------------------------|

1:03 - 1:11

e|-------------------------------------------------------------------|
B|10h12h13-10h12h13--10h12h13h15p12/17b------------------------------|
G|-------------------------------------------------------------------|
D|-------------------------------------------------------------------|
A|-------------------------------------------------------------------|
E|-------------------------------------------------------------------|

Slide down the neck at the end and you're done!
Comment please!

************************************

| /   slide up
| \   slide down
| h   hammer-on
| p   pull-off
| ~   vibrato
| +   harmonic
| x   Mute note
| b   Bend
| pb  Pre-bend
| br  Bend release
| pbr Pre-bend release
| brb Bend release bend

************************************

 
 
Misc Unsigned Bands - Freddiew - Noob Slayer Tab :: indexed at Ultimate Guitar.
Freddiew - Noob Slayer tabs @ 911Tabs

Quick tip, so you can enjoy Freddiew - Noob Slayer Tab even more:

Try out the AutoScroller option ... It scrolls the page for you, so you can totally focus on nailing that solo. You can choose among different speeds using your mouse or your keyboard (keys 0, 1, 2 and 3).

Show us your talent, perform Freddiew - Noob Slayer Tab!

Here you can post a video or audio performance. Tell me more ...
Where can we find your performance? Tell me more ...
Your comment:
Please, log in to post your performance.