Artists by letter: A B C D E F G H I J K L M N O P Q R S T U V W X Y Z 0-9

 
Scarborough Fair Tab
My First tab over here, let me know what you think about it!



Em	Em        D              Em
    Are you going to Scarborough Fair
    Em      Em        A       B7         
    Parsley sage rosemary and thyme
B      Em    G         G         D
    Remember me to one who lives there
        Em         D          Em  
    She once was a true lover of me

Em           Em           D            Em
e|--0-----0---|--7---7---7-|------------|--0---------|
B|------------|------------|----7---8-7-|------------|
G|------------|------------|------------|------------|
D|------------|------------|------------|------------|
A|------------|------------|------------|------------|
E|------------|------------|------------|------------|
    Are   you    go -ing to    Scarborough Fair

Em           Em           A            B7
e|---7-----10-|-12-----10--|---7-----9--|5---7-------|
B|------------|------------|------------|------------|
G|------------|------------|------------|------------|
D|------------|------------|------------|------------|
A|------------|------------|------------|------------|
E|------------|------------|------------|------------|
     Pars -ley  sage   rose -  ma -  ry  and thyme

B	       Em           G            G   
e|---------12-|-12--12--10-|-7---7---5--|-3----2-----|
B|------------|------------|------------|-----------3|
G|------------|------------|------------|------------|
D|------------|------------|------------|------------|
A|------------|------------|------------|------------|
E|------------|------------|------------|------------|
           Re - mem-ber me   to  one who lives there

D            Em           D            Em  
e|--0------2--|--3---5-7---|5--3----2---|0-----------|
B|------------|------------|------------|------------|
G|------------|------------|------------|------------|
D|------------|------------|------------|------------|
A|------------|------------|------------|------------|
E|------------|------------|------------|------------|
    She    once  was a true lo-ver  of   me

 
 
Misc Traditional - Scarborough Fair Tab :: indexed at Ultimate Guitar.
Scarborough Fair tabs @ 911Tabs

Quick tip, so you can enjoy Scarborough Fair Tab even more:

After the registration (which takes just 10 seconds, remember?) you will be able to use your profile - your very own piece of YourChords.com.

Show us your talent, perform Scarborough Fair Tab!

Here you can post a video or audio performance. Tell me more ...
Where can we find your performance? Tell me more ...
Your comment:
Please, log in to post your performance.