Artists by letter: A B C D E F G H I J K L M N O P Q R S T U V W X Y Z 0-9

 
The Sinner Tab
-------------------------------------------------------------------------------
			     THE SINNER - Memphis May Fire
-------------------------------------------------------------------------------
Tabbed by: SamuelParry
Youtube Channel: SamParryHD
If you have any questions or corrections, PM me on my Youtube Channel, or email me 
@ [email protected]

Tuning: Drop C# (Low E dropped down 3 semitones, all other strings dropped down one semitone)

VERSE 1:

e|------------------------------|---------------------------------------------|
B|------------------------------|---------------------------------------------|
G|------------------------------|---------------------------------------------| x2
D|------------------------------|--------------------------55557777-----------|
A|-8-5--------------4-7---0-4-4-|-8-5--------------44447777-------------------|
E|--0-00-8p5p0-0-00--0-00--0-0--|--0-00-8p5p0-0-00----------------------------|

e|------------------------------|------------------------------------------99999---|
B|------------------------------|--------------------------------------------------|
G|------------------------------|------------------------------------------66666---| 
D|-7-3--------------------------|-7-3----------------------5555777755557777--------|
A|------------------4-7---0-4-4-|------------------44447777------------------------|
E|--0-00-8p5p0-0-00--0-00--0-0--|--0-00-8p5p0-0-00---------------------------------|

PRE-CHORUS:

e|------------------------------------|-------------------------------------------------|
B|------------------------------------|-------------------------5h6p5----------8/10-----|
G|------------------------------------|-------------------------------7p6----7----------|
D|-0--0--0--0000--00---0-0-0-0000-7*--|-0--0--0--0000--00-0-0-0-----------7-------------|
A|-0--0--0--0000--00---0-0-0-0000-----|-0--0--0--0000--00-0-0-0-------------------------|
E|-0--0--0--0000--00---0-0-0-0000-----|-0--0--0--0000--00-0-0-0-------------------------|

e|------------------------------------|---------------------------------------------|
B|------------------------------------|---------------------------------------------|
G|------------------------------------|---------------------------------------------|
D|-0--0--0--0000--00---0-0-0-0000--00-|-8-8-8-8-8-8-8-8-7-7-7-7-7-7-7-7-------------|
A|-0--0--0--0000--00---0-0-0-0000--00-|-8-8-8-8-8-8-8-8-7-7-7-7-7-7-7-7-------------|
E|-0--0--0--0000--00---0-0-0-0000--00-|-8-8-8-8-8-8-8-8-7-7-7-7-7-7-7-7-------------|

CHORUS:

e|-------------------------------------|-------------------------------------|
B|-------------------------------------|-------------------------------------|
G|-------------------------------------|-------------------------------------|
D|-0--0--0--3--3--3--8--8--8--8--5--5--|-0--0--0--3--3--3--8--8--8--7--7--7--|
A|-0--0--0--3--3--3--8--8--8--8--5--5--|-0--0--0--3--3--3--8--8--8--7--7--7--|
E|-0--0--0--3--3--3--8--8--8--8--5--5--|-0--0--0--3--3--3--8--8--8--7--7--7--|

e|-------------------------------------|-------------------------------------|
B|-------------------------------------|-------------------------------------|
G|-------------------------------------|-------------------------------------|
D|-0--0--0--3--3--3--5--5--5--7--7--7--|-8--8--8--8--8--8--7--7--7--7--7--7--|
A|-0--0--0--3--3--3--5--5--5--7--7--7--|-8--8--8--8--8--8--7--7--7--7--7--7--|
E|-0--0--0--3--3--3--5--5--5--7--7--7--|-8--8--8--8--8--8--7--7--7--7--7--7--|

VERSE 2:

e|------------------------------|---------------------------------------------|
B|------------------------------|---------------------------------------------|
G|------------------------------|---------------------------------------------| 
D|------------------------------|--------------------------55557777-----------|
A|-8-5--------------4-7---0-4-4-|-8-5--------------44447777-------------------|
E|--0-00-8p5p0-0-00--0-00--0-0--|--0-00-8p5p0-0-00----------------------------|

e|------------------------------|------------------------------------------99999---|
B|------------------------------|--------------------------------------------------|
G|------------------------------|------------------------------------------66666---| 
D|------------------------------|--------------------------5555777755557777--------|
A|-8-5--------------4-7---0-4-4-|-8-5--------------44447777------------------------|
E|--0-00-8p5p0-0-00--0-00--0-0--|--0-00-8p5p0-0-00---------------------------------|

INTERLUDE:

Guitar One (very faint)
e|------------------------------------------------------------|
B|------------------------------------------------------------|
G|-10h12-10h12-10h12-10h12-10h12-10h12-10h12h10---------------|
D|---------------------------------------------h12------------|
A|------------------------------------------------------------|
E|------------------------------------------------------------|
 
then

e|------------------------------------------------------------|
B|---------------------------------------11h10----------------|
G|-10h12-10h12-10h12-10h12-10h12-10h12-10-----12h10-----------| play both x4
D|-------------------------------------------------h12--------|  
A|------------------------------------------------------------|
E|------------------------------------------------------------|

Guitar Two 
e|--------------------------------------------------------|
B|--------------------------------------------------------|
G|--------------------------------------------------------| 
D|-8------------0-----------3-----------5-----7-----------| x4 
A|-8------------0-----------3-----------5-----7-----------|
E|-8------------0-----------3-----------5-----7-----------|

BREAKDOWN (listen for rhythm):

e|----------------------------------|
B|----------------------------------|
G|----------------------------------| x3 then
D|-0-000-0-0000-000-0000-0-000------|
A|-0-000-0-0000-000-0000-0-000------|
E|-0-000-0-0000-000-0000-0-000------|

e|-8-8-8-8-8-8----------------------------|
B|-6-6-6-6-6-6-8-8-8-8--------------------|
G|-7-7-7-7-7-7-6-6-6-6--------------------| 
D|-------------7-7-7-7--------------------|
A|----------------------------------------|
E|----------------------------------------|

CHORUS:

e|-------------------------------------|-------------------------------------|
B|-------------------------------------|-------------------------------------|
G|-------------------------------------|-------------------------------------|
D|-0--0--0--3--3--3--8--8--8--8--5--5--|-0--0--0--3--3--3--8--8--8--7--7--7--|
A|-0--0--0--3--3--3--8--8--8--8--5--5--|-0--0--0--3--3--3--8--8--8--7--7--7--|
E|-0--0--0--3--3--3--8--8--8--8--5--5--|-0--0--0--3--3--3--8--8--8--7--7--7--|

e|-------------------------------------|-------------------------------------|
B|-------------------------------------|-------------------------------------|
G|-------------------------------------|-------------------------------------| x2
D|-0--0--0--3--3--3--5--5--5--7--7--7--|-8--8--8--8--8--8--7--7--7--7--7--7--|
A|-0--0--0--3--3--3--5--5--5--7--7--7--|-8--8--8--8--8--8--7--7--7--7--7--7--|
E|-0--0--0--3--3--3--5--5--5--7--7--7--|-8--8--8--8--8--8--7--7--7--7--7--7--|

INTERLUDE 2:

e|---------------------------------------------|
B|-----------6--6--6/10--8--10--8--------------|
G|-------5-7---7-------10-10--10-10------------| x3
D|---------------------------------------------|
A|-5-3-5---------------------------------------|
E|---------------------------------------------|

then

e|---------------------------------------------|
B|-----------------------6---6/13--------------|
G|-----------5-----7-------7------14-----------| Play both of these twice over
D|-7-5-7-5-7---7-5---7-5-----------------------|
A|---------------------------------------------|
E|---------------------------------------------|

e|----------------------|----------------------|-------------------------------|
B|----------------------|----------------------|-------------------------------|
G|----------------------|----------------------|-------------------------------|
D|-00000-000-00-00-000--|-00000-000-00-00-000--|-00000-000-00-00-000-----------|
A|-00000-000-00-00-000--|-00000-000-00-00-000--|-00000-000-00-00-000-----------|
E|-00000-000-00-00-000--|-00000-000-00-00-000--|-00000-000-00-00-000-----------|

e|-8-8-88-8-8------------------------9h10p9----------------------|
B|-6-6-66-6-6------------10h11p10-----------11p10h11p10----------|
G|-7-7-77-7-7-------9h10----------12--------------------12-------| 
D|-------------7h11----------------------------------------------|
A|---------------------------------------------------------------|
E|---------------------------------------------------------------|

LAST CHORUS:

e|-------------------------------------|-------------------------------------|
B|-------------------------------------|-------------------------------------|
G|-------------------------------------|-------------------------------------|
D|-0--0--0--3--3--3--8--8--8--8--5--5--|-0--0--0--3--3--3--8--8--8--7--7--7--|
A|-0--0--0--3--3--3--8--8--8--8--5--5--|-0--0--0--3--3--3--8--8--8--7--7--7--|
E|-0--0--0--3--3--3--8--8--8--8--5--5--|-0--0--0--3--3--3--8--8--8--7--7--7--|

e|-------------------------------------|-------------------------------------|
B|-------------------------------------|-------------------------------------|
G|-------------------------------------|-------------------------------------| x2
D|-0--0--0--3--3--3--5--5--5--7--7--7--|-8--8--8--8--8--8--7--7--7--0000-0---|
A|-0--0--0--3--3--3--5--5--5--7--7--7--|-8--8--8--8--8--8--7--7--7--0000-0---|
E|-0--0--0--3--3--3--5--5--5--7--7--7--|-8--8--8--8--8--8--7--7--7--0000-0---|

************************************

| /   slide up
| \   slide down
| h   hammer-on
| p   pull-off
| ~   vibrato
| *  harmonic
| x   Mute note
| b   Bend
| pb  Pre-bend
| br  Bend release
| pbr Pre-bend release
| brb Bend release bend

************************************

 
 
Memphis May Fire - The Sinner Tab :: indexed at Ultimate Guitar.
The Sinner tabs @ 911Tabs
People who played Memphis May Fire - The Sinner Tab also played these songs by Memphis May Fire:
Miles Away Chords, No Ordinary Love Chords, Speechless Chords, Miles Away Tab, Miles Away Chords, Cowbells Makin A Comeback Tab

Quick tip, so you can enjoy The Sinner Tab even more:

Try out the AutoScroller option ... It scrolls the page for you, so you can totally focus on nailing that solo. You can choose among different speeds using your mouse or your keyboard (keys 0, 1, 2 and 3).

Show us your talent, perform The Sinner Tab!

Here you can post a video or audio performance. Tell me more ...
Where can we find your performance? Tell me more ...
Your comment:
Please, log in to post your performance.