Artists by letter: A B C D E F G H I J K L M N O P Q R S T U V W X Y Z 0-9

 
Reborn In Blasphemy Tab
Band: Dismember
Album: Indecent And Obscene
Song: Reborn In Blasphemy

Copyright (c) Regain Records, 1992
Version 1.0, 29/1/2006, 30/1/2006

Code:
Suffixes for bend:
fb - full bend       hb - half bend
qb - quarter bend    t - tap bend
^ - Hold bend        r - release bend
~ - vibrato bend

Suffixes for harmonic:
ph - pinched harmonic      nh - natural harmonic
ah - artificial harmonic   hh - harp harmonic

Suffixes for mute:
. - palm mute            x - staccato mute
, - light palm mute      ; - heavy palm mute

Other:
/ - slide up to             - slide down to       
h - hammer on              p - pull off
' - sustained note         * - see comment
" - tremolo note            - Trill
L - left channel only      R - right channel only
= - 12 string guitar part

Tuning C F A# D# G C

Riff 1a (0:00)
|------------------------------|---------------------------------|
|------------------------------|---------------------------------|
|------------------------------|---------------------------------|
|------------------------------|---------------------------------|
|-2---7-10-7--6-------2--5--6--|-2---7-10-7--6-------2--3-3-3-3--| 
|-0---------------6p3----------|-0---------------6p3----1-1-1-1--|
                                                        . . . .
Riff 1b (0:09)
|------------------------------|--------------------------------|
|------------------------------|--------------------------------|
|------------------------------|--------------------------------|
|------------------------------|--------------------------------|
|-2---7-10-7--6-------2--5--6--|-2---7-10-7--6-------2--3--65--| 
|-0---------------6p3----------|-0---------------6p3----1--43--|

Riff 1c (0:17)
|------------------------------|--------------------------------|
|------------------------------|--------------------------------|
|------------------------------|--------------------------------|
|------------------------------|--------------------------------|
|-2---7-10-7--6-------2--5--6--|-2---7-10-7--6-------2--3--3-3--| 
|-0---------------6p3----------|-0---------------6p3----1--1-1--|
                                                           . .
Drums (0:26)

Riff 2a (0:28)
|-----------------------------------------------------|
|-----------------------------------------------------|
|-----------------------------------------------------|
|-----------------------------------------------------|
|---------------------3-3333-2-22222-22222-3-2-----8--|
|-0-00000-0000-3-3333--------------------------5-6----|
  . ..... .... . .... . .... . ..... ..... . . . . .

Riff 2b (0:33)
|------------------------------------------------------|
|------------------------------------------------------|
|------------------------------------------------------|
|-----------------------------------333----------------|
|--------------5---3---6---------------666555333222----|
|-0-00000-0000-3---1---4-44444-4444----------------111-|
  . ..... ....           ..... .... ..................

Riff 3a (0:38)
|---------------------------------------|
|---------------------------------------|
|---------------------------------------|
|---------------------------------5--|
|-2---------------2-------------4-------|
|-0----3/7--6---3---3/7--6--4---------|
    x               x

Riff 3b (0:44)
|----------------------------------------|
|----------------------------------------|
|----------------------------------------|
|----------------------------------7-6---|
|-2---------------2--------------5-----7-|
|-0----3/7--6---3---3/7--6--1---------|
    x               x

Riff 4a (0:50) play 3 times
|--------------------------------------|
|--------------------------------------|
|--------------------------------------|
|--------------------------------------|
|------7"----5"------------------------|
|-5"------6"----7"-8"-4"---334"--336"--|

Fill 1 (1:10)
|--------------------|
|--------------------|
|--------------------|
|-----5--4-----5--4--|
|-2---3--2--3--3--2--|
|-0---------1--------|

Drums (1:13)

Riff 5 (1:14)
|----------------------------------|----------------------------|
|----------------------------------|----------------------10~~--|
|----------------------------------|----------------------------|
|---------------6------------2-----|---------------6---4~-------| 
|-8----8--7--8--4---3--2--3-----3--|-8----8--7--8--4------------| 
|-6----------6---------------------|-6----------6---------------|

Riff 6 (1:23) play twice
|------------------------------------|
|---------------------0--------------|
|---------------------------3--------|
|---------------------------------4--| 
|----------------1"-----1-1---1-1----| 
|-0"----1"-3"-1"---------------------|
                        . .   . .

Fill 2 (1:31)
|----|------|----|------|----|------|----|
|----|------|----|------|----|------|----|
|----|-bass-|----|-bass-|----|-bass-|----|
|----|------|----|------|----|------|----|
|-2--|------|-2--|------|-2--|------|-2--|
|-0--|------|-0--|------|-0--|------|-0--|
  x

Riff 6 x 1 (1:35)

Riff 7a (1:43)
|------------------------------------------------|
|------------------------------------------------|
|------------------------------------------------|
|-------------2p0---2h3p2------------------------| 
|-----------------2-------2-2-5-2-----1h2---1h2--| 
|-0"-1"-3"-1"-------------0-0-3-0-1"------1------|

Riff 7b (1:47)
|----------------------------------------------|
|----------------------------------------------|
|----------------------------------------------|
|-------------2p0---2h3p2----------------------| 
|-----------------2-------2-2-5-2-----3h4-3h4--| 
|-0"-1"-3"-1"-------------0-0-3-0-1"-----------|

Riff 6 x 1 (1:52)

Riff 8a (2:00)
|------------------------------------|-----------------------------|
|------------------------------------|-----------------------------|
|------------------------------------|-----------------------------|
|-------8-7--------------------------|-------8-7-------------------| 
|-2---------7-6"--776"-779"--10109"--|-2---------7-6"--776"--------| 
|-0----------------------------------|-0--------------------8"-7"--|
              .     .    .

Riff 8b (2:08)
|------------------------------------|----------------|
|------------------------------------|----------------|
|------------------------------------|----------------|
|-------8-7--------------------------|-------8-7------| 
|-2---------7-6"--776"-779"--10109"--|-2---------7-6--| 
|-0----------------------------------|-0-----------6--|
              .     .    .                         x

Riff 9a (2:17)
|---------------------------|----------------------------|
|---------------------------|----------------------------|
|---------------------------|----------------------------|
|--------------5------------|--------------5-------4ph~--|
|-8-----8-7-8--3--------7---|-8-----8-7-8--3----3--------| 
|-6---------6-----8-7-8---8-|-6---------6-------1--------|

Riff 6 x 1 (2:25)

Riff 10 (2:33) play twice
|--------------------------------------|----------------------------|
|--------------------------------------|----------------------------|
|--------------------------------------|----------------------------|
|----------------9"-10"----------------|------------------------5"--|   
|-7"--------------------8"---5"-7"--8-|-7"-------------6"----------|   
|-------5"-7"-8"-----------------------|-------5"-7"-8"-------------|

Fill 3 (2:51)
|--------|
|--------|
|--------|
|--------| fade chord out quickly
|-2------|
|-0------|

Riff 11a (2:51)
|---------------------------------------------|
|---------------------------------------------|
|---------------------------------------------|
|-------9---------9-----------8---------8-----| Clean
|----7---------7-----7-----8---------8-----8--| 
|-0---------0-----------6---------6-----------|

Riff 11b (2:56)
|------------------------------------------------------|
|------------------------------------------------------|
|------------------------------------------------------|
|-------9---------9------------10---------7---------9--| Clean
|----7---------7-----7-----10----------7---------9-----| 
|-0---------0-----------8-----------5---------7--------|

Riff 12a (3:01) play twice
|----------------------------------------------------|
|----------------------------------------------------|
|----------------------------------------------------|
|----------------------------2--------------------|
|-3--2--------3--2--------3--------------3--2--------| 
|-1--0--------1--0--------1--------------1--0--------|
  .           .           .              .

Riff 12b (3:17) play 8 times
|-------------------|
|-------------------|
|-------------------|
|-------------------| gtr 1
|-2---------------3-| 
|-0---------------1-|
                  .

|-------------------|
|-------------------|
|-------------------|
|---10-9---10-9-7---| gtr 2
|-7------7--------8-| 
|-------------------|

Riff 12c (3:32)
|---------------------------------------------------|
|---------------------------------------------------|
|---------------------------------------------------|
|---------------------------------------------------|
|-3--2--------3--2--------3--2----------2--/3--2---| 
|-1--0--------1--0--------1--0--------1-------------|
  .           .           .           

Riff 12d (3:39)
|---------------------------------------------------|
|---------------------------------------------------|
|---------------------------------------------------|
|---------------------------------------------------|
|-3--2--------3--2--------3--6----------2--/3--2---| 
|-1--0--------1--0--------1--4--------1-------------|
  .           .

Riff 13 (3:46) play 8 times
|-------------------|
|-------------------|
|-------------------|
|---10-9---10-9-7---|
|-7------7--------8-| 
|-------------------|

Riff 14a (4:00) play twice
|--------------------------------------|
|--------------------------------------|
|---------4----------------------------|
|---------------------3-2---3-2--------|
|-2-4-5-2---5-1-4-5---------------2-3--| 
|-------------------5-----5-----4------|

Riff 14b (4:08)
|--------------------------------------|
|--------------------------------------|
|---------4----------------------------|
|---------------------3-2---3-2--------|
|-2-4-5-2---5-1-4-5---------------2-3--| 
|-------------------5-----5-----4------|
  . . . . . . . . . . . . . . . . . .

Solo begins at (4:12)
Riff 8a x 1 (4:12)
Riff 8b x 1 (4:21)

Riff 15a (4:29) play twice
|------------------------------------------|
|------------------------------------------|
|--------------------------------------4--|
|-------------------------------3"--2"-----|
|-----2"-3"-----2"-3"-----2"-3"------------| 
|-0"--------1"--------4"-------------------|

Riff 15b (4:33) play twice
|-------------------------------------------|
|-------------------------------------------|
|-------------------------------------------|
|-------------------------------------------|
|-----2"-3"-----2"-3"-----2"-3"-------------| 
|-0"--------1"--------4"--------3"--4"--1"--|

Riff 15a x 1 (4:37)
Riff 15b x 1 (4:42)
End
 


 
 
Dismember - Reborn In Blasphemy Tab :: indexed at Ultimate Guitar.
Reborn In Blasphemy tabs @ 911Tabs
People who played Dismember - Reborn In Blasphemy Tab also played these songs by Dismember:
Casket Garden Tab, Override Of The Overture Tab, Casket Garden Tab, Dreaming In Red Tab, 9th Circle Tab, Dreaming In Red Tab

Quick tip, so you can enjoy Reborn In Blasphemy Tab even more:

After the registration (which takes just 10 seconds, remember?) you will be able to use your profile - your very own piece of YourChords.com.

Show us your talent, perform Reborn In Blasphemy Tab!

Here you can post a video or audio performance. Tell me more ...
Where can we find your performance? Tell me more ...
Your comment:
Please, log in to post your performance.