Artists by letter: A B C D E F G H I J K L M N O P Q R S T U V W X Y Z 0-9

 
Sweet Home Alabama Tab
----------------------------------------------------------------------------
Sweet Home Alabama - Lynyrd Skynyrd

----------------------------------------------------------------------------
Tabbed by: Malbrez
Email: [email protected]

ive seen a lot of messed up tabs and a lot of CRUEL comments... those together
have inspired me not to Screw this up! RATE and COMMENT, thanks.

Tuning: Standard (is what i use because i tuned to the rest of my band)

Intro
e|--------------------------------------------------------------------------|
B|----3----------3----------------------------------------------------------|
G|------2-0--------0-------0------------------------------------------------|
D|0-0----------------0------------0h2p0-------------------------------------|
A|------------3-3-------------0h2--------3----------------------------------|
E|---------------------3-3--------------------------------------------------|

e|--------------------------------------------------------------------------|
B|----3---------3-----------------------------------------------------------|
G|------2-0-------0-------0-----0-2p0-0-4p0-0-5b----------------------------|
D|0-0---------------0-------------------------------------------------------|
A|----------3-3-------------------------------------------------------------|
E|--------------------3-3---------------------------------------------------|

verse
e|------------3-------------------------------------------------------------|
B|----3-------3-----3-------------------------------------------------------|
G|----2-------0-----0-------------------------------------------------------|
D|0-0-0-0-----------0------0h2p0--------------------------------------------|
A|--------3-3----------0h2-------3------------------------------------------|
E|--------------3-3---------------------------------------------------------|

e|-----------3--------------------------------------------------------------|
B|----3------3-----3--------------------------------------------------------|
G|----2------0-----0--------------------------------------------------------|
D|0-0-0------------0---------2-4~-------------------------------------------|
A|-------3-3-----------0-2h4------------------------------------------------|
E|-------------3-3----------------------------------------------------------|

you can use this...

e|---------------------3-3-3-3-3--------------------------------------------|
B|---------------------3-3-3-3-3--------------------------------------------|
G|-----7-7-7------5-5--4-4-4-4-4--------------------------------------------|
D|-----7-7-7------5-5--5-5-5-5-5--------------------------------------------|
A|-7-8-9-9-9--5h7-7-7--5-5-5-5-5--------------------------------------------|
E|---------------------3-3-3-3-3--------------------------------------------|

or this for the next part

e|--------------------------------------------------------------------------|
B|---------3-3--------1-1-1----------0--------------------------------------|
G|--------------------------------------------------------------------------|
D|--2-3-4-----4--1h2--------2-------------------2---------------------------|
A|----------------------------1-2-3---------0h2-----------------------------|
E|---------------------------------------3----------------------------------|

Chorus
e|-----------3--------------------------------------------------------------|
B|-----3-----3-----3--------------------------------------------------------|
G|-----2-----0-----0--------------------------------------------------------|
D|0-0--0-----------0------0h2p0---------------------------------------------|
A|-------3-3----------0h2-------3-------------------------------------------|
E|-------------3-3----------------------------------------------------------|

e|-----------3--------------------------------------------------------------|
B|-----3-----3-----3--------------------------------------------------------|
G|-----2-----0-----0--------------------------------------------------------|
D|0-0--0-----------0------0h2h4-0h2h4-0h2h4-0h2-0---------------------------|
A|-------3-3--------------------------------------3-------------------------|
E|-------------3-3----------------------------------------------------------|

e|-----------3--------------------------------------------------------------|
B|-----3-----3-----3--------------------------------------------------------|
G|-----2-----0-----0--------------------------------------------------------|
D|0-0--0-----------0------0h2p0---------------------------------------------|
A|-------3-3----------0h2-------3-------------------------------------------|
E|-------------3-3----------------------------------------------------------|

e|-----------3--------------------------------------------------------------|
B|-----3-----3-----3--------------------------------------------------------|
G|-----2-----0-----0--------------------------------------------------------|
D|0-0--0-----------0--------------------------------------------------------|
A|-------3-3----------------------------------------------------------------|
E|-------------3-3----------------------------------------------------------|



in going to try and add BOTH solos later but until then this is what i got.
thanks
 
 
Lynyrd Skynyrd - Sweet Home Alabama Tab :: indexed at Ultimate Guitar.
Sweet Home Alabama tabs @ 911Tabs

About the artist behind Sweet Home Alabama Tab:

Lynyrd Skynyrd (pronounced /ˌlɛnɚdˈskɪnɝd/,Leh-Nerd Skin-Nerd) is an American Southern rock band. The band became prominent in the Southern United States in 1973, and rose to worldwide recognition before several members, including lead vocalist and primary songwriter Ronnie Van Zant, were killed in a plane crash in 1977 near McComb, Mississippi. A tribute band was formed in 1987 for a reunion tour with Johnny Van Zant, Ronnie's younger brother, at the helm, and continues to record music today.

The band was inducted into the Rock and Roll Hall of Fame on March 13, 2006, with members Gary Rossington and Billy Powell, former members Ed King, Bob Burns, and Artimus Pyle, and deceased members Ronnie Van Zant, Allen Collins, Steve Gaines, and Leon Wilkeson.

Indexed at Wikipedia.

Show us your talent, perform Sweet Home Alabama Tab!

Here you can post a video or audio performance. Tell me more ...
Where can we find your performance? Tell me more ...
Your comment:
Please, log in to post your performance.