Artists by letter: A B C D E F G H I J K L M N O P Q R S T U V W X Y Z 0-9

 
Doom In Heaven Tab
                                Doom In Heaven

Qutin

D#||------|------------------|------------------|----|----|------|------|------|
A#||------|------------------|------------------|----|----|------|------|------|
F#||------|------------------|------------------|----|----|------|------|------|
C#||------|------------------|------------------|----|----|------|------|------|
G#||------|------------------|------------------|----|----|------|------|------|
D#||------|------------------|------------------|----|----|------|------|------|

------|--------------|------------------------------|
------|--------------|------------------------------|
------|--------------|------------------12----12----|
------|--------------|------------------11----11----|
------|--------------|--x---------------9-----9-----|
------|--------------|--0-0-0-0-0-0-0-0-------------|

-----------------------------|------------------------------|
-----------------------------|------------------------------|
-----------------10--11--10~-|------------------12----12----|
--------------9--------------|------------------11----11----|
-----------------------------|------------------9-----9-----|
--0--0--0--0-----------------|--0-0-0-0-0-0-0-0-------------|

----------------------------|------------------------------|
----------------------------|------------------------------|
----------------------16~---|------------------12----12----|
--------------14--15--------|------------------11----11----|
----------------------------|------------------9-----9-----|
--0--0--0--0----------------|--0-0-0-0-0-0-0-0-------------|

-----------------------------|------------------------------|
-----------------------------|------------------------------|
-----------------10--11--10~-|------------------12----12----|
--------------9--------------|------------------11----11----|
-----------------------------|------------------9-----9-----|
--0--0--0--0-----------------|--0-0-0-0-0-0-0-0-------------|

------------------------------|------------------|----|
------------------------------|------------------|----|
--x-----------11--10----------|------------------|----|
----------------------11--10--|--11--10----------|----|
------------------------------|----------12--11--|----|
--0--0--0--0------------------|------------------|----|

----------------------------|-----------------------------|
----------------------------|-----------------------------|
----------------12----12----|-----------------10--11--10~-|
----------------11----11----|--------------9--------------|
----------------9-----9-----|-----------------------------|
--0-0-0--0-0-0--------------|--0--0--0--0-----------------|

----------------------------|-----------------------------|
----------------------------|-----------------------------|
----------------12----12----|-----------------10--11--10~-|
----------------11----11----|--------------9--------------|
----------------9-----9-----|-----------------------------|
--0-0-0--0-0-0--------------|--0--0--0--0-----------------|

----------------------------|-----------------------------|
----------------------------|-----------------------------|
----------------12----12----|-----------------10--11--10~-|
----------------11----11----|--------------9--------------|
----------------9-----9-----|-----------------------------|
--0-0-0--0-0-0--------------|--0--0--0--0-----------------|

----------------------------|------------------------------|------------------|
----------------------------|------------------------------|------------------|
----------------12----12----|--x-----------11--10----------|------------------|
----------------11----11----|----------------------11--10~-|--11--10----------|
----------------9-----9-----|------------------------------|----------12--11--|
--0-0-0--0-0-0--------------|--0--0--0--0------------------|------------------|

----------------------------|-----------------------------|
----------------------------|-----------------------------|
----------------12----12----|-----------------10--11--10~-|
----------------11----11----|--------------9--------------|
----------------9-----9-----|-----------------------------|
--0-0-0--0-0-0--------------|--0--0--0--0-----------------|

----------------------------|-----------------------------|
----------------------------|-----------------------------|
----------------12----12----|-----------------10--11--10~-|
----------------11----11----|--------------9--------------|
----------------9-----9-----|-----------------------------|
--0-0-0--0-0-0--------------|--0--0--0--0-----------------|

----------------------------|-----------------------------|
----------------------------|-----------------------------|
----------------12----12----|-----------------10--11--10~-|
----------------11----11----|--------------9--------------|
----------------9-----9-----|-----------------------------|
--0-0-0--0-0-0--------------|--0--0--0--0-----------------|

----------------------------|------------------------------|------------------|
----------------------------|------------------------------|------------------|
----------------12----12----|--------------11--10----------|------------------|
----------------11----11----|----------------------11--10~-|--11--10----------|
----------------9-----9-----|------------------------------|----------12--11--|
--0-0-0--0-0-0--------------|--0--0--0--0------------------|------------------|

--------------------------|---------------------|---------------------|
--------------------------|---------------------|---------------------|
--10--------9-------------|---------------------|---------------------|
------9--------8----------|---------------------|---------------------|
---------8--------7--7----|--7---------8--7--6--|--7---------8--7--6--|
--------------------------|-----0-0-0-----------|-----0-0-0-----------|

---------------------|-----------------------|---------------------|
---------------------|-----------------------|---------------------|
---------------------|-----------------------|---------------------|
---------------------|--10-----9-------------|---------------------|
--7---------8--7--6--|------8-----7--11--10--|--7---------8--7--6--|
-----0-0-0-----------|-----------------------|-----0-0-0-----------|

---------------------|---------------------|---------------------|
---------------------|---------------------|---------------------|
---------------------|---------------------|---------------------|
---------------------|---------------------|--------------10--9~-|
--7---------8--7--6--|--7---------8--7--6--|--------7--8---------|
-----0-0-0-----------|-----0-0-0-----------|--5--8---------------|

---------------------|---------------------|---------------------|
---------------------|---------------------|---------------------|
---------------------|---------------------|---------------------|
---------------------|---------------------|---------------------|
--7---------8--7--6--|--7---------8--7--6--|--7---------8--7--6--|
-----0-0-0-----------|-----0-0-0-----------|-----0-0-0-----------|

-----------------------|---------------------|---------------------|
-----------------------|---------------------|---------------------|
-----------------------|---------------------|---------------------|
--10-----9-------------|---------------------|---------------------|
------8-----7--11--10--|--7---------8--7--6--|--7---------8--7--6--|
-----------------------|-----0-0-0-----------|-----0-0-0-----------|

---------------------|---------------------|---------------------|
---------------------|---------------------|---------------------|
---------------------|---------------------|---------------------|
---------------------|--------------10--9~-|---------------------|
--7---------8--7--6--|--------7--8---------|--7---------8--7--6--|
-----0-0-0-----------|--5--8---------------|-----0-0-0-----------|

---------------------|---------------------|-----------------------|
---------------------|---------------------|-----------------------|
---------------------|---------------------|-----------------------|
---------------------|---------------------|--10-----9-------------|
--7---------8--7--6--|--7---------8--7--6--|------8-----7--11--10--|
-----0-0-0-----------|-----0-0-0-----------|-----------------------|

---------------------|---------------------|---------------------|
---------------------|---------------------|---------------------|
---------------------|---------------------|---------------------|
---------------------|---------------------|---------------------|
--7---------8--7--6--|--7---------8--7--6--|--7---------8--7--6--|
-----0-0-0-----------|-----0-0-0-----------|-----0-0-0-----------|

---------------------|---------------------|---------------------|
---------------------|---------------------|---------------------|
---------------------|---------------------|---------------------|
--------------10--9~-|---------------------|---------------------|
--------7--8---------|--7---------8--7--6--|--7---------8--7--6--|
--5--8---------------|-----0-0-0-----------|-----0-0-0-----------|

---------------------|-----------------------|---------------------|
---------------------|-----------------------|---------------------|
---------------------|-----------------------|---------------------|
---------------------|--10-----9-------------|---------------------|
--7---------8--7--6--|------8-----7--11--10--|--7---------8--7--6--|
-----0-0-0-----------|-----------------------|-----0-0-0-----------|

---------------------|---------------------|-----------------------|
---------------------|---------------------|-----------------------|
---------------------|---------------------|-----------------------|
---------------------|---------------------|-----------------------|
--7---------8--7--6--|--7---------8--7--6--|--3----3/---2----------|
-----0-0-0-----------|-----0-0-0-----------|--1----1/---0----------|

-----------------------|----------------|-----------------------|
-----------------------|----------------|-----------------------|
-----------------------|----------------|-----------------------|
-----------------------|----------------|-----------------------|
--2--2----2--2----2----|----------------|--2--2----2--2----2----|
--0--0----0--0----0----|----------------|--0--0----0--0----0----|

----------------|-----------------------|----------------|
----------------|-----------------------|----------------|
----------------|-----------------------|----------------|
----------------|-----------------------|----------------|
----------------|--2--2----2--2----2----|----------------|
----------------|--0--0----0--0----0----|----------------|

-----------------------|-------------------------|------------------------|
-----------------------|-------------------------|------------------------|
-----------------------|-------10--11--10--------|------------------------|
-----------------------|----9--------------------|------------------------|
--2--2----2--2----2----|-------------------------|--2--2----2--2----2--2--|
--0--0----0--0----0----|-------------------------|--0--0----0--0----0--0--|

----------------------------|------------------------|
----------------------------|------------------------|
-------10--11--10-----------|------------------------|
----9----------------10--9--|------------------------|
----------------------------|--2--2----2--2----2--2--|
----------------------------|--0--0----0--0----0--0--|

----------------------------|------------------------|
----------------------------|------------------------|
-------10--11--10-----------|------------------------|
----9----------------10--9--|------------------------|
----------------------------|--2--2----2--2----2--2--|
----------------------------|--0--0----0--0----0--0--|

----------------------------|------------------------|-------------------------|
----------------------------|------------------------|-------------------------|
-------10--11--10-----------|------------------------|-------10--11--10--------|
----9----------------10--9--|------------------------|----9--------------------|
----------------------------|--2--2----2--2----2--2--|-------------------------|
----------------------------|--0--0----0--0----0--0--|-------------------------|

------------------------|----------------------------|------------------------|
------------------------|----------------------------|------------------------|
------------------------|-------10--11--10-----------|------------------------|
------------------------|----9----------------10--9--|------------------------|
--2--2----2--2----2--2--|----------------------------|--2--2----2--2----2--2--|
--0--0----0--0----0--0--|----------------------------|--0--0----0--0----0--0--|

----------------------------|------------------------|
----------------------------|------------------------|
-------10--11--10-----------|------------------------|
----9----------------10--9--|------------------------|
----------------------------|--2--2----2--2----2--2--|
----------------------------|--0--0----0--0----0--0--|

----------------------------|------------------------|-------------------------|
----------------------------|------------------------|-------------------------|
-------10--11--10-----------|------------------------|-------10--11--10--------|
----9----------------10--9--|------------------------|----9--------------------|
----------------------------|--2--2----2--2----2--2--|-------------------------|
----------------------------|--0--0----0--0----0--0--|-------------------------|

-----------------------|-------------------|-----------------------|
-----------------------|-------------------|-----------------------|
-----------------------|-------------------|-----------------------|
-----------------------|-------------------|-----------------------|
--2--2----2--2----2----|--2----------------|--2--2----2--2----2----|
--0--0----0--0----0----|--0----------------|--0--0----0--0----0----|

-------------------|-----------------------|-------------------|
-------------------|-----------------------|-------------------|
-------------------|-----------------------|-------------------|
-------------------|-----------------------|-------------------|
--2----------------|--7--7----7--7----7----|--7----------------|
--0----------------|--0--0----0--0----0----|--0----------------|

-----------------------|----------------------|
-----------------------|----------------------|
-----------------------|----------4/9/-----x--|
-----------------------|----------------------|
--8--8----8--8----7----|--7-------------------|
--0--0----0--0----0----|--0-------------------|

---------6-9-12t9-6---------12t9-6-------|
--------------------14t11-8--------14t11-|
--6t9-12t--------------------------------|
-----------------------------------------|
-----------------------------------------|
-----------------------------------------|

----------9-12-15t12-9----------15t12-9-------|
-----------------------17t14-11---------17t14-|
--9-12-15t------------------------------------|
----------------------------------------------|
----------------------------------------------|
----------------------------------------------|

-----------12-15-18t15-12----------18t15-12-------|
--------------------------20t17-14----------20t17-|
--12-15-18t---------------------------------------|
--------------------------------------------------|
--------------------------------------------------|
--------------------------------------------------|

--21t-15--------------------------------------15--|
----------17t-14----------------------14--17t-----|
--------------------------------------------------|
------------------17--------------17--------------|
----------------------19--16--19------------------|
--------------------------------------------------|

--18t15-------------------------------------------|
--------17t14-17t15-------------------------------|
--------------------18t15-18t15-------------------|
--------------------------------17t14-17t14-------|
--------------------------------------------16t13-|
--------------------------------------------------|

-----------------14-19/22/19-14----------------|
--------------15----------------15-------------|
-----------16----------------------16----------|
--------16----------------------------16-------|
--14h17----------------------------------17-14/|
-----------------------------------------------|

-----------------14-19-22/24/22-19-14----------------|--------------------|
--------------15----------------------15-------------|--------------------|
-----------16----------------------------16-------16~|----------16/-------|
--------16----------------------------------16-------|--------------------|
--13-17----------------------------------------17-14~|----------14/-------|
-----------------------------------------------------|--------------------|

----------------------------|-----------------------------|
----------------------------|-----------------------------|
--x-------------12----12----|-----------------10--11--10~-|
----------------11----11----|--------------9--------------|
--x-------------9-----9-----|-----------------------------|
--0-0-0--0-0-0--------------|--0--0--0--0-----------------|

----------------------------|-----------------------------|
----------------------------|-----------------------------|
----------------12----12----|-----------------10--11--10~-|
----------------11----11----|--------------9--------------|
----------------9-----9-----|-----------------------------|
--0-0-0--0-0-0--------------|--0--0--0--0-----------------|

----------------------------|-----------------------------|
----------------------------|-----------------------------|
----------------12----12----|-----------------10--11--10~-|
----------------11----11----|--------------9--------------|
----------------9-----9-----|-----------------------------|
--0-0-0--0-0-0--------------|--0--0--0--0-----------------|

----------------------------|------------------------------|------------------|
----------------------------|------------------------------|------------------|
----------------12----12----|--------------11--10----------|------------------|
----------------11----11----|----------------------11--10~-|--11--10----------|
----------------9-----9-----|------------------------------|----------12--11--|
--0-0-0--0-0-0--------------|--0--0--0--0------------------|------------------|

----------------------------|-----------------------------|
----------------------------|-----------------------------|
----------------12----12----|-----------------10--11--10~-|
----------------11----11----|--------------9--------------|
----------------9-----9-----|-----------------------------|
--0-0-0--0-0-0--------------|--0--0--0--0-----------------|

----------------------------|-----------------------------|
----------------------------|-----------------------------|
----------------12----12----|-----------------10--11--10~-|
----------------11----11----|--------------9--------------|
----------------9-----9-----|-----------------------------|
--0-0-0--0-0-0--------------|--0--0--0--0-----------------|

----------------------------|-----------------------------|
----------------------------|-----------------------------|
----------------12----12----|-----------------10--11--10~-|
----------------11----11----|--------------9--------------|
----------------9-----9-----|-----------------------------|
--0-0-0--0-0-0--------------|--0--0--0--0-----------------|

----------------------------|------------------------------|------------------|
----------------------------|------------------------------|------------------|
----------------12----12----|--------------11--10----------|------------------|
----------------11----11----|----------------------11--10~-|--11--10----------|
----------------9-----9-----|------------------------------|----------12--11--|
--0-0-0--0-0-0--------------|--0--0--0--0------------------|------------------|

--------------------------|---------------------|---------------------|
--------------------------|---------------------|---------------------|
--10--------9-------------|---------------------|---------------------|
------9--------8----------|---------------------|---------------------|
---------8--------7--7----|--7---------8--7--6--|--7---------8--7--6--|
--------------------------|-----0-0-0-----------|-----0-0-0-----------|

---------------------|-----------------------|---------------------|
---------------------|-----------------------|---------------------|
---------------------|-----------------------|---------------------|
---------------------|--10-----9-------------|---------------------|
--7---------8--7--6--|------8-----7--11--10--|--7---------8--7--6--|
-----0-0-0-----------|-----------------------|-----0-0-0-----------|

---------------------|---------------------|---------------------|
---------------------|---------------------|---------------------|
---------------------|---------------------|---------------------|
---------------------|---------------------|--------------10--9~-|
--7---------8--7--6--|--7---------8--7--6--|--------7--8---------|
-----0-0-0-----------|-----0-0-0-----------|--5--8---------------|

---------------------|---------------------|---------------------|
---------------------|---------------------|---------------------|
---------------------|---------------------|---------------------|
---------------------|---------------------|---------------------|
--7---------8--7--6--|--7---------8--7--6--|--7---------8--7--6--|
-----0-0-0-----------|-----0-0-0-----------|-----0-0-0-----------|

-----------------------|---------------------|---------------------|
-----------------------|---------------------|---------------------|
-----------------------|---------------------|---------------------|
--10-----9-------------|---------------------|---------------------|
------8-----7--11--10--|--7---------8--7--6--|--7---------8--7--6--|
-----------------------|-----0-0-0-----------|-----0-0-0-----------|

---------------------|---------------------|---------------------|
---------------------|---------------------|---------------------|
---------------------|---------------------|---------------------|
---------------------|--------------10--9~-|---------------------|
--7---------8--7--6--|--------7--8---------|--7---------8--7--6--|
-----0-0-0-----------|--5--8---------------|-----0-0-0-----------|

---------------------|---------------------|-----------------------|
---------------------|---------------------|-----------------------|
---------------------|---------------------|-----------------------|
---------------------|---------------------|--10-----9-------------|
--7---------8--7--6--|--7---------8--7--6--|------8-----7--11--10--|
-----0-0-0-----------|-----0-0-0-----------|-----------------------|

---------------------|---------------------|---------------------|
---------------------|---------------------|---------------------|
---------------------|---------------------|---------------------|
---------------------|---------------------|---------------------|
--7---------8--7--6--|--7---------8--7--6--|--7---------8--7--6--|
-----0-0-0-----------|-----0-0-0-----------|-----0-0-0-----------|

---------------------|---------------------|---------------------|
---------------------|---------------------|---------------------|
---------------------|---------------------|---------------------|
--------------10--9~-|---------------------|---------------------|
--------7--8---------|--7---------8--7--6--|--7---------8--7--6--|
--5--8---------------|-----0-0-0-----------|-----0-0-0-----------|

---------------------|-----------------------|---------------------|
---------------------|-----------------------|---------------------|
---------------------|-----------------------|---------------------|
---------------------|--10-----9-------------|---------------------|
--7---------8--7--6--|------8-----7--11--10--|--7---------8--7--6--|
-----0-0-0-----------|-----------------------|-----0-0-0-----------|

---------------------|---------------------|--------------------------------|
---------------------|---------------------|--------------------------------|
---------------------|---------------------|--11--10------------------------|
---------------------|---------------------|-------------11--10-------------|
--7---------8--7--6--|--7---------8--7--6--|------------------------11--10--|
-----0-0-0-----------|-----0-0-0-----------|----------0----------0----------|

----------------------------|--------------------------|
----------------------------|--------------------------|
----------------------------|--------------------------|
--11--10--------------------|--------------------------|
-------------8--7-----8--7--|--2-----------3-----------|
----------0--------0--------|--0--0--0--0--1--0--0--0--|

--------------------------|--------------------------|
--------------------------|--------------------------|
--------------------------|--------------------------|
--------------------------|--------------------------|
--5--------4--3-----4--3--|--2-----------3-----------|
--3--0--0--4--3--0--4--3--|--0--0--0--0--1--0--0--0--|

--------------------------|--------------------------|
--------------------------|--------------------------|
--------------------------|--------------------------|
--------------------------|--------------------------|
--5--------4--3-----4--3--|--2-----------3-----------|
--3--0--0--4--3--0--4--3--|--0--0--0--0--1--0--0--0--|

--------------------------|--------------------------|
--------------------------|--------------------------|
--------------------------|--------------------------|
--------------------------|--------------------------|
--5--------4--3-----4--3--|--2-----------3-----------|
--3--0--0--4--3--0--4--3--|--0--0--0--0--1--0--0--0--|

--------------------------|--------------------------|
--------------------------|--------------------------|
--------------------------|--------------------------|
--------------------------|--------------------------|
--5--------4--3-----4--3--|--2-----------3-----------|
--3--0--0--4--3--0--4--3--|--0--0--0--0--1--0--0--0--|

--------------------------|--------------------------|
--------------------------|--------------------------|
--------------------------|--------------------------|
--------------------------|--------------------------|
--5--------4--3-----4--3--|--2-----------3-----------|
--3--0--0--4--3--0--4--3--|--0--0--0--0--1--0--0--0--|

--------------------------|--------------------------|
--------------------------|--------------------------|
--------------------------|--------------------------|
--------------------------|--------------------------|
--5--------4--3-----4--3--|--2-----------3-----------|
--3--0--0--4--3--0--4--3--|--0--0--0--0--1--0--0--0--|

--------------------------|--------------------------|
--------------------------|--------------------------|
--------------------------|--------------------------|
--------------------------|--------------------------|
--5--------4--3-----4--3--|--2-----------3-----------|
--3--0--0--4--3--0--4--3--|--0--0--0--0--1--0--0--0--|

---------------------------|--------------------------|
---------------------------|--------------------------|
---------------------------|--------------------------|
---------------------------|--------------------------|
--5--5--5--5--3--3---3--3--|--2--2--2--3--3--3--5--5--|
--3--3--3--3--1--1-1-1--1--|--0--0--0--1--1--1--3--3--|

--------------------------|--------------------------|
--------------------------|--------------------------|
--------------------------|--------------------------|
--------------------------|--------------------------|
--2--2--3--5--5--5--3--3--|--2--2--2--3--3--3--5--5--|
--0--0--1--3--3--3--1--1--|--0--0--0--1--1--1--3--3--|

--------------------------|--------------------------|
--------------------------|--------------------------|
--------------------------|--------------------------|
--------------------------|--------------------------|
--6--6--3--3--5--5--2--2--|--2--2--2--3--3--3--5--5--|
--4--4--1--1--3--3--0--0--|--0--0--0--1--1--1--3--3--|

--------------------------|--------------------------|
--------------------------|--------------------------|
--------------------------|--------------------------|
--------------------------|--------------------------|
--2--2--3--5--5--5--3--3--|--2--2--2--3--3--3--5--5--|
--0--0--1--3--3--3--1--1--|--0--0--0--1--1--1--3--3--|

--------------------------|--------------------------|
--------------------------|--------------------------|
--------------------------|--------------------------|
--------------------------|--------------------------|
--6--6--3--3--5--5--2--2--|--2--2--2--3--3--3--5--5--|
--4--4--1--1--3--3--0--0--|--0--0--0--1--1--1--3--3--|

--------------------------|--------------------------|
--------------------------|--------------------------|
--------------------------|--------------------------|
--------------------------|--------------------------|
--2--2--3--5--5--5--3--3--|--2--2--2--3--3--3--5--5--|
--0--0--1--3--3--3--1--1--|--0--0--0--1--1--1--3--3--|

--------------------------|-------------------|------------------|
--------------------------|-------------------|------------------|
--------------------------|-------------------|------------------|
--------------------------|-------------------|------------------|
--6--6--3--3--5--5--2--2--|--2----------------|------------------|
--4--4--1--1--3--3--0--0--|--0----------------|------------------|

-------------------|------------------|--------------------|
-------------------|------------------|--------------------|
-------------------|------------------|--------------------|
-------------------|------------------|-----------5--4-----|
--3----------------|------------------|--4--3-----5--4-----|
--3----------------|------------------|--4--3--0--------0--|

--------------------|--------------|--------------------|--------------------|
--------------------|--------------|--------------------|--------------------|
--------------------|--------------|--------------------|--------------------|
-----------5--4-----|--------------|-----------5--4-----|-----------5--4-----|
--4--3-----5--4-----|--4--3--4--3--|--4--3-----5--4-----|--4--3-----5--4-----|
--4--3--0--------0--|--4--3--4--3--|--4--3--0--------0--|--4--3--0--------0--|

--------------|--------------------|--------------------|--------------|
--------------|--------------------|--------------------|--------------|
--------------|--------------------|--------------------|--------------|
--------------|-----------5--4-----|-----------5--4-----|--------------|
--6--5--6--5--|--4--3-----5--4-----|--4--3-----5--4-----|--4--3--4--3--|
--6--5--6--5--|--4--3--0--------0--|--4--3--0--------0--|--4--3--4--3--|

--------------------|--------------------|----------------------------|
--------------------|--------------------|----------------------------|
--------------------|--------------------|--------------8-9-8---------|
-----------5--4-----|-----------5--4-----|---------------------10--9--|
--4--3-----5--4-----|--4--3-----5--4-----|--6--5--6--5----------------|
--4--3--0--------0--|--4--3--0--------0--|--6--5--6--5----------------|

----------11--12--11-12-11----------|---------------------14---14-15-14--|
--12--13--------------------13--12--|--12-13-12--------------------------|
------------------------------------|------------14--12------------------|
------------------------------------|------------------------------------|
------------------------------------|------------------------------------|
------------------------------------|------------------------------------|

--12----------|--------------------|---------------------------|
--------16/---|--17~---------------|---------------------------|
--------------|--------------------|---------------------------|
--------------|--------------------|---------------------------|
--------------|--------------------|--10-----------------------|
--------------|--------------------|------0--0--0--0--0--0--0--|

--------------------------|--------------------------|
--------------------------|--------------------------|
--------------------------|--------------------------|
--------------------------|--------------------------|
--9-----------------------|--8-----------------------|
-----0--0--0--0--0--0--0--|-----0--0--0--0--0--0--0--|

---------------------------|--------------------------|
---------------------------|--------------------------|
---------------------------|--------------------------|
---------------------------|--------------------------|
--10-----------------------|--9-----------------------|
------0--0--0--0--0--0--0--|-----0--0--0--0--0--0--0--|

--------------------------|--------------------------|
--------------------------|--------------------------|
--------------------------|--------------------------|
--------------------------|--------------------------|
--8-----------------------|--10--9--8--9--8--7--8~---|
-----0--0--0--0--0--0--0--|--------------------------|

---------------------------|--------------------------|
---------------------------|--------------------------|
---------------------------|--------------------------|
---------------------------|--------------------------|
--10-----------------------|--9-----------------------|
------0--0--0--0--0--0--0--|-----0--0--0--0--0--0--0--|

--------------------------|---------------------------|
--------------------------|---------------------------|
--------------------------|---------------------------|
--------------------------|---------------------------|
--8-----------------------|--10-----------------------|
-----0--0--0--0--0--0--0--|------0--0--0--0--0--0--0--|

--------------------------|--------------------------|
--------------------------|--------------------------|
--------------------------|--------------------------|
--------------------------|--------------------------|
--9-----------------------|--8-----------------------|
-----0--0--0--0--0--0--0--|-----0--0--0--0--0--0--0--|

--------------------------|----------------------------|
--------------------------|----------------------------|
--------------------------|----------------------------|
--------------------------|----------------------------|
--10--9--8--9--8--7--8~---|--10------------------------|
--------------------------|------0--0--0--0-0-0--0--0--|

---------------------------|---------------------------|
---------------------------|---------------------------|
---------------------------|---------------------------|
---------------------------|---------------------------|
--9------------------------|--8------------------------|
-----0--0--0--0-0-0--0--0--|-----0--0--0--0-0-0--0--0--|

----------------------------|---------------------------|
----------------------------|---------------------------|
----------------------------|---------------------------|
----------------------------|---------------------------|
--10------------------------|--9------------------------|
------0--0--0--0-0-0--0--0--|-----0--0--0--0-0-0--0--0--|

---------------------------|--------------------------|
---------------------------|--------------------------|
---------------------------|--------------------------|
---------------------------|--------------------------|
--8------------------------|--10--9--8--9--8--7--8~---|
-----0--0--0--0-0-0--0--0--|--------------------------|

-----------------------------|---------------------------|
-----------------------------|---------------------------|
-----------------------------|---------------------------|
-----------------------------|---------------------------|
--10-------------------------|--9------------------------|
------0--0--0--0-0-0--0-0-0--|-----0--0--0--0-0-0--0--0--|

---------------------------|----------------------------|
---------------------------|----------------------------|
---------------------------|----------------------------|
---------------------------|----------------------------|
--8------------------------|--10------------------------|
-----0--0--0--0-0-0--0--0--|------0--0--0--0-0-0--0--0--|

---------------------------|---------------------------|
---------------------------|---------------------------|
---------------------------|---------------------------|
---------------------------|---------------------------|
--9------------------------|--8------------------------|
-----0--0--0--0-0-0--0--0--|-----0--0--0--0-0-0--0--0--|

--------------------------|--------------------------|
--------------------------|--------------------------|
--------------------------|--------------------------|
--------------------------|--------------------------|
--10--9--8--9--8--7--8~---|--10--9--8--9--8--7--8~---|
--------------------------|--------------------------|

--------------------------------|--------------------------------|
--------------------------------|--------------------------------|
--------------------------------|--------------------------------|
--------------------------------|--14--13--12--13--12--11--12~---|
--17--16--15--16--15--14--15~---|--------------------------------|
--------------------------------|--------------------------------|

--------------------|--------------------|--------------|--------------------|
--------------------|--------------------|--------------|--------------------|
--------------------|--------------------|--------------|--------------------|
-----------5--4-----|-----------5--4-----|--------------|-----------5--4-----|
--4--3-----5--4-----|--4--3-----5--4-----|--4--3--4--3--|--4--3-----5--4-----|
--4--3--0--------0--|--4--3--0--------0--|--4--3--4--3--|--4--3--0--------0--|

--------------------|--------------|--------------------|--------------------|
--------------------|--------------|--------------------|--------------------|
--------------------|--------------|--------------------|--------------------|
-----------5--4-----|--------------|-----------5--4-----|-----------5--4-----|
--4--3-----5--4-----|--4--3--4--3--|--4--3-----5--4-----|--4--3-----5--4-----|
--4--3--0--------0--|--4--3--4--3--|--4--3--0--------0--|--4--3--0--------0--|

--------------|--------------------|--------------------|------------------|
--------------|--------------------|--------------------|------------------|
--------------|--------------------|--------------------|------------------|
--------------|-----------5--4-----|-----------5--4-----|------------------|
--4--3--4--3--|--4--3-----5--4-----|--4--3-----5--4-----|--4--3--4--3---x--|
--4--3--4--3--|--4--3--0--------0--|--4--3--0--------0--|--4--3--4--3/--x--|

------------------|------------------|------------------||
------------------|------------------|------------------||
------------------|------------------|------------------||
------------------|------------------|------------------||
--4--3--4--3/--x--|--4--3--4--3/--x--|--4--3--4--3------||
--4--3--4--3/--x--|--4--3--4--3/--x--|--4--3--4--3/--x--||


 
 
Qutin - Doom In Heaven Tab :: indexed at Ultimate Guitar.
Doom In Heaven tabs @ 911Tabs
People who played Qutin - Doom In Heaven Tab also played these songs by Qutin:
Doom In Heaven

Quick tip, so you can enjoy Doom In Heaven Tab even more:

If you don't really know how to deal with "Absus4" chord and his equally confusing brothers, just put the mouse cursor over them and you will be shown a helpful chord diagram.

Show us your talent, perform Doom In Heaven Tab!

Here you can post a video or audio performance. Tell me more ...
Where can we find your performance? Tell me more ...
Your comment:
Please, log in to post your performance.