Artists by letter: A B C D E F G H I J K L M N O P Q R S T U V W X Y Z 0-9

 
John Sinclair Tab
Open E tuning: E,B,E,G#,B,e
w/slide
  
 [Fig.1]
|--------------------------------|--------------------------------|
|------0---0---0---------------0-|------0---0---0---------------0-|
|--------------------------------|--------------------------------|
|3/4-0-----------3/4-3/4-0-------|3/4-0-----------3/4-3/4-0-------|
|--------------------------------|--------------------------------|
|--------------------------------|--------------------------------|

[Fig.2]
|--------------------------------|--------------------------------|
|------5---5---5---------------5-|------5---5---5---------------0-|
|4/5-------------4/5-4/5---------|4/5-------------4/5-4/5---------|
|----5-------------------5-------|----5-------------------5-------|
|--------------------------------|--------------------------------|
|--------------------------------|--------------------------------|

[Fig.1b]
|--------------------------------|--------------------------------|
|------0---0---0---------------0-|------0---0---0-----------------|
|--------------------------------|----------------5\3-----------0-|
|3/4-0-----------3/4-3/4-0-------|3/4-0-----------5\3-3/4-0-----0-|
|--------------------------------|--------------------------------|
|--------------------------------|--------------------------------|

[ext.
|------------------------|
|--------------0---0-----|
|--0---------------------|
|--0-3/4-0---0-----------|
|------------------------|
|------------------------|

[Fig.3]
|----------------------------7---|--------------------------5\----|
|----------------------7-----7---|--------------------------5\----|
|----------------------7---------|--------------------------5\----|
|/7----------7-------7---7-------|/5------------------------5\----|
|/7----7---------7---------------|/5------------------------5\----|
|/7------------------------------|/5------------------------5\----|

[Fig.4]
|3---0---        
|3---0---       -3-0-----|
|3---0---       -3-0-----|
|3---0---
 
 
John Lennon - John Sinclair Tab :: indexed at Ultimate Guitar.
John Sinclair tabs @ 911Tabs

About the artist behind John Sinclair Tab:

John Winston Ono Lennon, MBE (born John Winston Lennon; 9 October 1940–8 December 1980) was an English rock musician, singer, songwriter, artist, and peace activist who gained worldwide fame as one of the founding members of The Beatles. As a member of the group, Lennon was one of the lead vocalists and co-wrote the majority of the band's songs with bassist Paul McCartney.

In his solo career, Lennon wrote and recorded songs such as "Give Peace a Chance" and "Imagine". Lennon revealed his rebellious nature and wit on television, in films such as A Hard Day's Night, in books such as In His Own Write, and in press conferences and interviews. He was controversial through his work as a peace activist, artist, and author.

Lennon had two sons: Julian Lennon, with his first wife Cynthia Lennon, and Sean Ono Lennon, with his second wife, avant-garde artist Yoko Ono. After a self-imposed retirement from 1976 to 1980, Lennon reemerged with a comeback album, but was murdered one month later in New York City on 8 December 1980. In 2002, respondents to a BBC poll on the 100 Greatest Britons voted Lennon into eighth place. In 2004, Rolling Stone magazine ranked Lennon number 38 on its list of "The Immortals: The Fifty Greatest Artists of All Time" and ranked The Beatles at number one.

Indexed at Wikipedia.

Show us your talent, perform John Sinclair Tab!

Here you can post a video or audio performance. Tell me more ...
Where can we find your performance? Tell me more ...
Your comment:
Please, log in to post your performance.