Artists by letter: A B C D E F G H I J K L M N O P Q R S T U V W X Y Z 0-9

 
Wednesday Morning 3am Tab
Wednesday Morning, 3 A.M.

From the "Live From New York City" album, 1967

Capo 4th fret
Tuning: Standard
Key: D 
Sounding Key: F#



D               Em
e:|---2-------------|-------0-------0-|-------0-------0-|-------0-------0-|
B:|---3-------------|-----------------|-----------------|-----------------|
G:|---2-------------|-----0-------0---|-----0-------0---|-----0-------0---|
D:|---0-------------|---------0h2-----|---------0h2-----|---------0h2-----|
A:|-----------------|-0h2-------------|-0h2-------------|-0h2-------------|
E:|-----------------|-----------------|-----------------|-----------------|

D
e:|-----------------|-----------0-----|-0h2-------0-----|-0h2-------0-----|
B:|-----------------|-------3---------|-------3-------3-|-------3-------3-|
G:|-----------------|-----2-------2---|-----2-------2---|-----2-------2---|
D:|-s4---2---0------|--0------0-------|-0-------0-------|-0-------0-------|
A:|--------------2--|-----------------|-----------------|-----------------|
E:|-----------------|-----------------|-----------------|-----------------|

D               $                    Bm/F#             G
e:|-2---2------2----|--2--------0-----|-----------------|-----------------|
B:|-----3-----------|-------3---------|--3--------3-----|--3--------3-----|
G:|-----2--------2--|-----2-------2---|-------4---------|-------4---------|
D:|-0--------0------|--0------0-------|-----4-------4---|-----------------|
A:|-----------------|-----------------|-----------------|-----5-------5---|
E:|-----------------|-----------------|--2------2-------|--3------3-------|

I can hear  the soft  breathing  of  the  girl  that I

F#m                                 D                 Em
e:|-----------------|--2--------2-----|-----------------|-----------------|
B:|------------2----|-----------------|--3----3---3-----|--0--------0-----|
G:|--2--------------|-------2---------|-----2-----------|-------0-----0---|
D:|--------4-----4--|-----4-------4---|--0------0---0---|-----2-----------|
A:|-----------------|-----------------|-----------------|-----------------|
E:|--2-------2------|--2------2-------|-----------------|--0------2-------|

love                          as she lies   here   beside  me      a -

A
e:|-----------------|-----------------|--0--------0-----|
B:|-----------2-----|--2--------3-----|-------3---------|
G:|-------2---------|-------2---------|-----2-------2---|
D:|-----2-------2---|-----2-------2---|-----------------|
A:|--0------0-------|--0------0-------|--0------0-------|
E:|-----------------|-----------------|-----------------|

- sleep    with the night                       And her

D                 Bm/F#             G
e:|--2--------0-----|-----------------|-----------------|
B:|-------3---------|--3--------3-----|--3--------3-----|
G:|-----2-------2---|-------4---------|-------4---------|
D:|--0------0-------|-----4-------4---|-----------------|
A:|-----------------|-----------------|-----5-------5---|
E:|-----------------|--2------2-------|--3------3-------|

hair   in   a     fine    mist    floats     on my

F#m                                 D                 Em             *
e:|-----------------|--2--------2-----|-----------------|-----------------|
B:|------------2----|-----------------|--3----3---3-----|--0--------0-----|
G:|--2--------------|-------2---------|-----2-----------|-------0-----0---|
D:|--------4-----4--|-----4-------4---|--0------0---0---|-----2-----------|
A:|-----------------|-----------------|-----------------|-----------------|
E:|--2-------2------|--2------2-------|-----------------|--0------2-------|

pillow                          reflecting    the    glow      of the

G                 D
e:|-----------------|-----------0-----|-----------0-----|-0h2------2------|
B:|------0----0-----|-------3-------x-|-------3---------|------3-------3--|
G:|---------------0-|-----2-------2---|-----2-------2---|----2-------2----|
D:|------0------0---|-----------------|--0------0-------|-0------0--------|
A:|-----------------|--0------0-------|-----------------|-----------------|
E:|--3------3-------|-----------------|-----------------|-----------------|

win    -      -    ter         moonlight

Em
e:|-------0-------0-|-------0-------0-|-------0-------0-|-----------------|
B:|-----------------|-----------------|-----------------|-----------------|
G:|-----0-------0---|-----0-------0---|-----0-------0---|-----------------|
D:|---------0h2-----|---------0h2-----|---------0h2-----|-s4---2---0------|
A:|-0h2-------------|-0h2-------------|-0h2-------------|--------------2--|
E:|-----------------|-----------------|-----------------|-----------------|

D                                @
e:|-----------0-----|--2--------0-----|--2---2----0-----|--2--------2-----|
B:|-------3---------|-------3-------3-|-----------------|-------3-------3-|
G:|-----2-------2---|-----2-------2---|------2------2---|-----2-------2---|
D:|---------0-------|--0--------------|--0------0-------|--0--------------|
A:|--0--------------|---------0-------|-----------------|---------0-------|
E:|-----------------|-----------------|-----------------|-----------------|

For the second verse, "She is soft, she is warm," return to $ and repeat, 
	this time through jumping from @ to:
@:
     Dsus                                D                 Bm/F#
e:|--3-----2---0----|--3----2---0-----|--2--2-2---------|-----------2-----|
B:|--3--------------|--3--------------|--3--3-3---------|-----------3-----|
G:|--2--------------|--2--------------|--2--2-2---------|-----------4-----|
D:|--0---0---0---0--|--0------0---0---|--0--0-0---------|----4---4-----4--|
A:|--------------0--|---------0-------|--0--0-0---------|---2---4------4--|
E:|-----------------|-----0-----------|------------0--0-|--2---2-------2--|

Oh,  what  have  I  done; 
     G                 F#m                                 D
e:|-----------------|-----------------|-----2------0--0-|--2---2-2-2-2-2--|
B:|-----------------|--------------2--|-----2------0--0-|--3---3-3-3-3-3--|
G:|-----------------|--------------2--|-----2-----------|--2---2-2-2-2-2--|
D:|--5---5-5-----5--|--4--4--4-4---4--|-----4-----------|--0---0-0-0-0-0--|
A:|--5---5-5-----5--|--4--4--4-4------|--4--4----4------|-----------------|
E:|--3---3-3-----3--|--2--2--2-2------|--2------2-------|-----------------|

why   have   I   done it                      I've committed      a

Em                 A
e:|-----------0----0|-----------------|-----------------|--0---------0----|
B:|-0----------0----|------------0----|-------2---3-----|--2-----3---3----|
G:|------0----------|--------2--------|-----2-----------|--2-----2--------|
D:|-----------------|------2----------|-----------------|--2-----------0--|
A:|-----------------|--0---0---0---0--|---------0---0---|--0---0----------|
E:|-0--0---0-----0--|-----------------|--0--------------|----------0------|

crime         I've broken     the    law                            for

D                 Bm/F#             G                 F#m
e:|--2--2-2---------|-----------2-----|-----------------|-----------------|
B:|--3--3-3---------|-----------3-----|-----------------|--------------2--|
G:|--2--2-2---------|-----------4-----|-----------------|--------------2--|
D:|--0--0-0---------|----4---4-----4--|--5---5-5-----5--|--4--4--4-4---4--|
A:|--0--0-0---------|---2---4------4--|--5---5-5-----5--|--4--4--4-4------|
E:|------------0--0-|--2---2-------2--|--3---5-3-----3--|--2--2--2-2------|

twenty - five     dollars   and      pieces    of      silver

F#m               D                 Em                G
e:|-----2------0--0-|--2---2-2---2-2--|-----------------|-----------------|
B:|-----2------0--0-|--3---3-3---3-3--|-----------------|--0-----0--------|
G:|-----2-----------|--2---2-2---2-2--|--0---0---0---0--|------0-----0----|
D:|-----4-----------|--0---0-0---0-0--|--2---2---2---2--|------0-------0--|
A:|--4--4----4------|-----------------|--2---2---2---2--|-----------------|
E:|--2------2-------|-----------------|--0---0---0---0--|--3------3-------|

I   held  up   and    robbed         a   hard

A                 D                                  Em
e:|-----0-------0---|-----------0-----|-0h2-------2---2-|-------0-------0-|
B:|--2------2-------|-------3---------|-------3---------|-----------------|
G:|-----------------|-----2-------2---|-----2-------2---|-----0-------0---|
D:|-------2-------2-|--0------0-------|-0-------0-------|---------0h2-----|
A:|--0--------0-----|-----------------|-----------------|-0h2-------------|
E:|-----------------|-----------------|-----------------|-----------------|

liquor  store

D
e:|-------0---------|-----------0-----|--2--------0-----|---3---2---0---0-|
B:|-----------------|-------3---------|-------3-------3-|-----------------|
G:|-----0-----------|-----2-------2---|-----2-------2---|-----2-------2---|
D:|---0-----s4-2-0--|---------0-------|--0------0-------|-0-------0-------|
A:|-0--------------2|--0--------------|-----------------|-----------------|
E:|-----------------|-----------------|-----------------|-----------------|

D
e:|--2---2------2---|
B:|------3----3-----|
G:|------2------2---|
D:|--0------0-------|
A:|-----------------|
E:|-----------------|

For the final verse, "My life seems unreal," return to $ and repeat.
	At *, jump to:

G                                   A
e:|-----------------|-----------------|-----------------|-----------------|
B:|-----------3-----|-----------3-----|-----------------|-----------5-----|
G:|-------4---------|-------4---------|-------6-------6-|-------6---------|
D:|-----------------|-----------------|-----7-----7-----|-----7-----------|
A:|-----5-------5---|-----5-------5---|-----7-------7---|-----7-------7---|
E:|--3------3-------|--3------3-------|--5------5-------|--5------5-------|

... hours                                                              a -

D                                  Em
e:|-----------0-----|-0h2-------2-----|-------0-------0-|-------0-------0-|
B:|-------3---------|-------3-------3-|-----------------|-----------------|
G:|-----2-------2---|-----2-------2---|-----0-------0---|-----0-------0---|
D:|---------0-------|-0-------0-------|---------0h2-----|---------0h2-----|
A:|--0--------------|-----------------|-0h2-------------|-0h2-------------|
E:|-----------------|-----------------|-----------------|-----------------|

- way

Em               D
e:|-------0-------0-|---2~------------|
B:|-----------------|---3~------------|
G:|-----0-------0---|---2~------------|
D:|---------0h2-----|---0~------------|
A:|-0h2-------------|---0~------------|
E:|-----------------|-----------------|



Lyrics:

I can hear the soft breathing of the girl that I love
As she lies here beside me asleep with the night
And her hair in a fine mist floats on my pillow
Reflecting the glow of the winter moonlight

She is soft, she is warm, but my heart remains heavy
And I watch as her breasts gently rise, gently fall
For I know with the first light of dawn I'll be leaving
And tonight will be all I have left to recall

Oh, what have I done; why have I done it?
I've committed a crime, I've broken the law
For twenty-five dollars and pieces of silver
I held up and robbed a hard liquor store

My life seems unreal, my crime an illusion
A scene badly written in which I must play
Yet I know as I gaze at my young love beside me
The morning is just a few hours away

Words and Music by Paul Simon
 
 
Simon And Garfunkel - Wednesday Morning 3am Tab :: indexed at Ultimate Guitar.
Wednesday Morning 3am tabs @ 911Tabs

Quick tip, so you can enjoy Wednesday Morning 3am Tab even more:

If you spend just 10 seconds to register, you will be able to comment on all the chords and tabs and rate them. You will as well be able to comment on videos of your fellow guitarists and give them ratings from 1 to 5 ... And - of course - you can share your own videos with them and see what they think of you. :)
Click here to join us!

Show us your talent, perform Wednesday Morning 3am Tab!

Here you can post a video or audio performance. Tell me more ...
Where can we find your performance? Tell me more ...
Your comment:
Please, log in to post your performance.