Artists by letter: A B C D E F G H I J K L M N O P Q R S T U V W X Y Z 0-9

 
Living Hell Tab
Song: Living Hell
Artist: die ärzte
Album: Jazz ist anders (2007)

Sonstiges:
Arrangiert für einen Gitarristen/-tin (naja größtenteils ;-)

Die Gitarre ist ein Halbton tieber gestimmt!

      A
      E  E  E  E  E  E  E  E     E  E  E  E  E  E  E  S S
D#||--------------------------|---------------------------|
A#||--------------------------|---------------------------|
F#||--------------------------|---------------------------|
C#||--2--2--2--2--2--2--2--2--|--2--2--2--2--2--2--2--2-2-|
G#||--0--0--0--0--0--0--0--0--|--0--0--0--0--0--0--0--0-0-|
D#||--------------------------|---------------------------|


  E  E  E  E  E  E  E  S S    E  E  E  E  E  E  E  S S
---------------------------|---------------------------|
---------------------------|---------------------------|
---------------------------|---------------------------|
--2--2--2--2--2--2--2--2-2-|--2--2--2--2--2--2--2--x-x-|
--0--0--0--0--0--0--0--0-0-|--0--0--0--0--0--0--0--0-0-|
---------------------------|---------------------------|


    E  E  E  S S E  E  E  S S    E  E  E  S S E  E  E  S S
|-----------------------------|----------------------------|
|-----------------------------|----------------------------|
|*--9-----9--9-9-7-----7--7-7-|--5-----5--5-5-4-----4--4-4-|
|*--x--x--x--x-x-x--x--x--x-x-|--x--x--x--x-x-x--x--x--x-x-|
|---0--0--0--0-0-0--0--0--0-0-|--0--0--0--0-0-0--0--0--0-0-|
|-----------------------------|----------------------------|


  F                                                    C
  Q    E  E  E  E  E  E     E  E  E  E  E  E  E  E     Q    E  E  E  E  E  E
--1----------------------|--------------------------|--3----------------------|
--1----------------------|--------------------------|--5----------------------|
--2----------------------|--------------------------|--5----------------------|
--3----------------------|--------------------------|--5----5--5--5--5--5--5--|
--3----3--3--3--3--3--3--|--3--3--3--3--3--3--3--3--|--3----3--3--3--3--3--3--|
--1----1--1--1--1--1--1--|--1--1--1--1--1--1--1--1--|-------------------------|


                             G
  E  E  E  E  E  E  E  E     Q    E  E  E  E  E  E
--------------------------|--3----------------------|
--------------------------|--3----------------------|
--------------------------|--4----------------------|
--5--5--5--5--5--5--5--5--|--5----------------------|
--3--3--3--3--3--3--3--3--|--5----5--5--5--5--5--5--|
--------------------------|--3----3--3--3--3--3--3--|


                               F
  E  E  E  E  E  E  E  E   3x  E  E  E  E  E  E  E  E
---------------------------||--------------------------|
---------------------------||--------------------------|
--------------------------*||--------------------------|
--------------------------*||--------------------------|
--5--5--5--5--5--5--5--5---||--3--3--3--3--3--3--3--3--|
--3--3--3--3--3--3--3--3---||--1--1--1--1--1--1--1--1--|


  E  E  E  E  E  E  E  S S    E  E  E  E  E  E  E  E
-----------------------1-1-|--L-----------------------|
-----------------------1-1-|--L-----------------------|
-----------------------2-2-|--L-----------------------|
-----------------------3-3-|--L-----------------------|
--3--3--3--3--3--3--3--3-3-|--L--3--3--3--3--3--3--3--|
--1--1--1--1--1--1--1--1-1-|--L--1--1--1--1--1--1--1--|


                                 Am
  E  E  E  E  E  E  E  S S    E  E  E  E  E  E  E  E
-----------------------1-1-|--L-----------------------|
-----------------------1-1-|--L-----------------------|
-----------------------2-2-|--L-----------------------|
-----------------------3-3-|--L-----------------------|
--3--3--3--3--3--3--3--3-3-|--L--7--7--7--7--7--7--7--|
--1--1--1--1--1--1--1--1-1-|--L--5--5--5--5--5--5--5--|


                                 G
  E  E  E  E  E  E  E  S S    E  E  E  E  E  E  E  E
-----------------------5-5-|--L-----------------------|
-----------------------5-5-|--L-----------------------|
-----------------------5-5-|--L-----------------------|
-----------------------7-7-|--L-----------------------|
--7--7--7--7--7--7--7--7-7-|--L--5--5--5--5--5--5--5--|
--5--5--5--5--5--5--5--5-5-|--L--3--3--3--3--3--3--3--|


  E  E  E  E  E  E  E  S S
-----------------------3-3-||
-----------------------3-3-||
-----------------------4-4-||
-----------------------5-5-||
--5--5--5--5--5--5--5--5-5-||
--3--3--3--3--3--3--3--3-3-||


Ab hier kommt der Chorus mit der verzerrten Gitarre. Das war mir n bisschen zu tricky, 
das hier aufzuschreiben. Einfach selbst ausprobieren oder sucht nach der guitar pro 
die auch das Solo beinhaltet.

am                      F                        C                 G
Die Sonne lacht als hätte die Van Gogh gemahlt, und auf dem Asphalt, steht die Luft
am                           F                        C                    G
Die Blumen blühen als wurden sie dafür bezahlt, doch das lässt mich so kalt, wie ihr Duft
          am           F                    C                  G
Zu viele Frauen, zu viel Geld - Viel zu viel was mir auch viel zu gut gefällt
F                       C
Mein Leben ist die Hölle, ich fühle mich so leer
     G                          am
Immer Laut, immer bunt, ist auf die Dauer nicht gesund
    F                   C
Mein Leben ist die Hölle, ich kann nicht mehr, ich 

F
 brauch kein Haus aus Puren Gold
am                              C                     G
Ich hab das alles nicht gewollt, ich brauch nur etwas Ruhe
Das wäre nicht schlecht, ich 
F
  will nicht müssen was ich muss
am                         C                    G
Ich hasse diesen Überfluss, ich brach nur etwas Ruhe
Dann komm ich schon zu recht


Ich kann doch nichts dafür das ich ein Glückspilz bin, und jedes Herz gewinn, Tag für Tag
Das ist der Fluch der Menschen die zu gut aussehen, es hört niemand hin, wenn ich was sag
Und noch ein Flirt, noch ein Kuss. Nur noch einmal Vögeln dann ist wirklich Schluss
Mein Leben ist die Hölle, wo ist der Notausgang?
Zu Viel Sex, zu weinig schlaf - wofür werde ich denn nur bestraft?
Mein Leben ist die Hölle, schon viel zu lang, ich 


 brauch kein Haus aus Puren Gold
Ich hab das alles nicht gewollt, ich brauch nur etwas Ruhe
und etwas Zeit
Das Leben ist zum Lachen da, drum nehm ich Psychopharmaka.
Ich brauch nur etwas Ruhe
Und Einsamkeiten
In jeder zweiten Zeitschrift steht,
wie gut es jedem Menschen geht - Der immer alles haben kann,
die  Wahrheit ist ich glaub nicht mehr daran

Ende ist Am

Duration Legend
---------------
W - whole
H - half
Q - quarter
E - 8th
S - 16th
T - 32nd
X - 64th
. - note dotted
|-n-|  - n-tuplets

 
 
Die Aerzte - Living Hell Tab :: indexed at Ultimate Guitar.
Living Hell tabs @ 911Tabs

Quick tip, so you can enjoy Living Hell Tab even more:

YourChords.com Guitar Chords and Tabs Archive is currently indexing over 240'000 songs from 21'000+ different artists. And new chords just keep on coming in, so you will surely never run out of them.

Show us your talent, perform Living Hell Tab!

Here you can post a video or audio performance. Tell me more ...
Where can we find your performance? Tell me more ...
Your comment:
Please, log in to post your performance.