Artists by letter: A B C D E F G H I J K L M N O P Q R S T U V W X Y Z 0-9

 
Alles Fr Dich Tab
Alles für dich
==============
(M/T: Urlaub)

Anm: Ich glaube, der Effekt, der während den Strophen verwendet wird, ist ein Reverse-Effekt
     In Intro, Interlude, Refrain und Outro, spielt zu der normalen E-Gitarre zusätzlich
     noch eine Stahlakustik!

E-Gitarre:                 Stahlakustik (Wenn ein D/2 notiert ist spielt die E-Gitarre 
                           normal und nur die Akustik variiert):
   a   C   G   D   F   E     a   C   G   D    D/2 
1:-5-|-3-|-3-|-5-|-1-|-7-| |-5-|-8-|-7-|-8--|-10-|
2:-5-|-5-|-3-|-7-|-1-|-9-| |-5-|-8-|-8-|-10-|-10-| Bei jedem D wird erst das D,
3:-5-|-5-|-4-|-7-|-2-|-9-| |---|---|---|----|----| dann D/2 gespielt.
4:-7-|-5-|-5-|-7-|-3-|-9-| |---|---|---|----|----|
5:-7-|-3-|-5-|-5-|-3-|-7-| |---|---|---|----|----|
6:-5-|---|-3-|---|-1-|---| |---|---|---|----|----|


Intro (Wahrscheinlich mit Wah-Wah und Noise-Gate oder Phaser/Flanger):
   1x:       7x:
1:----------|-------------|
2:----------|-------------|
3:-7--7-7-7-|-5--7--7-7-7-|
4:----------|-------------|
5:----5-5-5-|-------5-5-5-|
6:----------|-------------|


Dann:
   a         C              G                 D                      a
1:-----------8---------|-----------------------------------------------|
2:-10---8-10---10~~----|-11/10--10--10--8------------------------------|
3:-------------------7-|-------------------9--9/8--7--5-------5--------|
4:---------------------|----------------------------------7-7----7-5-7-|
5:---------------------|-----------------------------------------------|
6:---------------------|-----------------------------------------------|
                C                           G
1:----------------------------------------|----------------------------|
2:----------------------------------------|------8---8------8-----8-10-|
3:-7---5--------------7--------5-7-7--5-7-|-/9-----9----9-9---9-9------|
4:---7----7-5-7-----7----7^5^7------------|----------------------------|
5:----------------5-----------------------|----------------------------|
6:----------------------------------------|----------------------------|
       D/2                                                  Fdk...
1:-3-5-t7^5-t7-t8--t9^7-t8-t9--t12--t17//0--t15-t17--t19-0--|
2:----------------------------------------------------------|
3:----------------------------------------------------------|
4:----------------------------------------------------------|
5:----------------------------------------------------------|
6:----------------------------------------------------------|

a             C             G                  D                  a
1:------------------------|----------------------------------------|
2:-10---10-10-8-----------|----------------------------------------|
3:---------------9---5--5-|-7---f+7--f+7---7-7-5-------------------|
4:------------------------|-----------------------7-7----------5^7-|
5:------------------------|-----------------------------5-5-7------|
6:------------------------|----------------------------------------|
               C              G               D/2                      a  Fdk...
1:--------------------------|---------------------------------------------|
2:-/10--10-10--8------------|----12---12--12--10---10-10-12b13r12--10--10-|
3:----------------9-9--5--5-|-7-------------------------------------------|
4:--------------------------|---------------------------------------------|
5:--------------------------|---------------------------------------------|
6:--------------------------|---------------------------------------------|

1:-0^5^8^5^8^5^8^5-^7/5^2^5^2^5//0-----------|
2:-------------------------------------------|
3:-------------------------------------------|
4:-------------------------------------------|
5:-----------------------------------scratch-|
6:-------------------------------------------|


1.Strophe (Mit Noise-Gate und Wah-Wah):
a        F                  C               G                  a
  Ich würd' Dich auf Händen tragen, doch Du bist zu schwer für mich.
      F                   C              G                a
Liebe geht halt durch den Magen. Ich bin sehr verliebt in Dich.
          F              C                G                a
Ich würd' Dich auf Rosen betten, doch die kosten sehr viel Geld.
         F                    C                    D           E
Und außerdem möcht' ich drauf wetten, dass Dir das gar nich' gefällt.


Refrain:
a           C              G
  Ich würde alles für Dich tun.
             D                      a
Zum Beispiel fällt mir 'grad nichts ein.
               C             G
Doch eins kann ich Dir prophezeih'n:
         D/2(Fill1)          a(-->Interlude)
Du wirst furchtbar glücklich sein.


Fill1:
1:-0^5^8^5^8^5^8^5-^7/5^2^5^2^5//0-----------|
2:-------------------------------------------|
3:-------------------------------------------|
4:-------------------------------------------|
5:-----------------------------------scratch-|
6:-------------------------------------------|


Interlude:
a             C             G              D                  a
1:------------------------|------------------------------------|
2:-10---10-10-8-----------|------------------------------------|
3:---------------9---5--5-|-7---7--7---7-7-5-------------------|
4:------------------------|-------------------7-7----------5^7-|
5:------------------------|-------------------------5-5-7------|
6:------------------------|------------------------------------|
               C              G               D/2                      a   Fdk...
1:--------------------------|------------------------------------------------|
2:-/10--10-10--8------------|----12---12--12--10---10-10-12b13r12--10--10//0-|
3:----------------9-9--5--5-|-7----------------------------------------------|
4:--------------------------|------------------------------------------------|
5:--------------------------|------------------------------------------------|
6:--------------------------|------------------------------------------------|


2.Strophe:
a           F              C              G                   a
  Ich werd' immer für Dich da sein, außer wenn ich grad nicht kann.
          F                  C                  G                a
Und schon sehr bald wird Dir klar sein: Ich bin einwandfrei Dein Mann.
        F           C                 G           a
Von den Ander'n abgeseh'n bist Du die Einzige für mich.
          F              C             D       E
Lass mich nich' im Regen stehen, Regen mag ich nich'.


Refrain:
a           C              G
  Ich würde alles für Dich tun,
             D               a
Wenn es sich nicht vermeiden lässt.
                C              G
Ich weiss, dass Du mich gut verstehst,
           D/2               f#
Komm jetzt her und halt mich fest.


Bridge:
f#    E'               Fill2
  Ich schenke Dir mein Herz.
f#     E'           Fill2
  Oder lieber meine Leber.
f#         E'               Fill2
  Ich will nich' gleich übertreiben.
f#            E'             Fill3
  Schließlich bin ich kein Angeber.

Fill2:
  C#D         C#D         C#D         C#D     E'
1:----------|-----------|-----------|---------0-|
2:----------|-----------|-----------|---------0-|
3:6/7--7--7-|-6/7--7--7-|-6/7--7--7-|-6/7--7--1-|
4:6/7--7--7-|-6/7--7--7-|-6/7--7--7-|-6/7--7--2-|
5:4/5--5--5-|-4/5--5--5-|-4/5--5--5-|-4/5--5--2-|
6:----------|-----------|-----------|---------0-|

Fill3:
  C#D         C#D         E(Fill1)
1:----------|-----------|------------|-----------|
2:----------|-----------|------------|-----------|
3:6/7--7--7-|-6/7--7--7-|-9--9--9--9-|-9--9--9//-|
4:6/7--7--7-|-6/7--7--7-|-9--9--9--9-|-9--9--9//-|
5:4/5--5--5-|-4/5--5--5-|-7--7--7--7-|-7--7--7//-|
6:----------|-----------|------------|-----------|


Outro:
a           C              G
  Ich würde alles für Dich tun,
      D                a
Naja, alles vielleicht nicht.
           C              G
Stell Dich bitte nicht so an!
           D/2             a    C
Komm jetzt her und heirat' mich!

        G    D
Heirate mich!
        a    C
Heirate mich!
        G    D/2
Heirate mich!
        a     C  G  D
Heirate mich!

a C G  D/2 a



Begleitsolo zum Outro:
        a   C       G           D             a            C            G            D/2
1:-----------|------8-----------10-----|------12-----------8-----|------10-----------12----|
2:-(11/)10---|-8-10---10---8-10----10--|-8-10----10---8-10---10--|-8-10----10---8-10----10-|
3:-----------|-------------------------|-------------------------|-------------------------|
4:-----------|-------------------------|-------------------------|-------------------------|
5:-----------|-------------------------|-------------------------|-------------------------|
6:-----------|-------------------------|-------------------------|-------------------------|

a             C             G              D                 a
1:------------------------|------------------------------------|
2:-10---10-10-8-----------|------------------------------------|
3:---------------9---5--5-|-7---7--7---7-7-5-------------------|
4:------------------------|-------------------7-7----------5^7-|
5:------------------------|-------------------------5-5-7------|
6:------------------------|------------------------------------|
               C              G               D/2                      a
1:--------------------------|---------------------------------------------|
2:-/10--10-10--8------------|----12---12--12--10---10-10-12b13r12--10--10-|
3:----------------9-9--5--5-|-7-------------------------------------------|
4:--------------------------|---------------------------------------------|
5:--------------------------|---------------------------------------------|
6:--------------------------|---------------------------------------------|
              C              G                  D/2      D/3            a
1:-------------------------|----------------------------------------------|
2:-10---10-10-8------------|----------------------------------------------|
3:---------------9-9--5--5-|-7---7--7-7---7--7--5-------------------------|
4:-------------------------|-----------------------7-7--------------------|
5:-------------------------|-----------------------------7--5-------------|
6:-------------------------|-----------------------------------8--5--3--5-|
               C              G               D/3                      a   Fdk...
1:--------------------------|---------------------------------------------|
2:-/10--10-10--8------------|----12---12--12--10---10-10-12b13r12--10--10-|
3:----------------9-9--5--5-|-7-------------------------------------------|
4:--------------------------|---------------------------------------------|
5:--------------------------|---------------------------------------------|
6:--------------------------|---------------------------------------------|


um es ausdrücklich zu erwähnen:
	********************************************************
	*Diese Tab wurde von www.Debil-Tabs.de.vu runtergeladen*
	********************************************************

vielen dank, debil-tabs!



 
 
Die Aerzte - Alles Fr Dich Tab :: indexed at Ultimate Guitar.
Alles Fr Dich tabs @ 911Tabs

Quick tip, so you can enjoy Alles Fr Dich Tab even more:

Try out the AutoScroller option ... It scrolls the page for you, so you can totally focus on nailing that solo. You can choose among different speeds using your mouse or your keyboard (keys 0, 1, 2 and 3).

Show us your talent, perform Alles Fr Dich Tab!

Here you can post a video or audio performance. Tell me more ...
Where can we find your performance? Tell me more ...
Your comment:
Please, log in to post your performance.