Artists by letter: A B C D E F G H I J K L M N O P Q R S T U V W X Y Z 0-9

 
Listen My Son Tab
As I found no tabs for songs of The Unseen Guest I decided to make them myself...timing 
be that difficult. Its always Verse--> Chorus--> Verse--> Chorus, there is no bridge.
I also attached the tabs for guitar two and the bass, as above, listen to the song for timing

Verse:

Am             Am
|---x----------|---x-------------||
|---x----------|---x------------o||
|---x-2--------|---x-2---2-------||  x10
|---x----------|---x-------------||
|-0-x-0-3-3----|-0-x-0---0------o||
|---x----------|---x---3---3-----||

Chorus:

A                 Dm
|-------------------|----------1------------|
|--------2----------|-------3-----3----2----|
|------2----2----2--|----2----------2-------|
|----2--------2-----|0----------------------|
|-0-----------------|-----------------------|
|-------------------|-----------------------|

listen...           Listen...
tell you...         twice...

F                      E
|-----------1--------|----------------------------------||
|--------1-----1-----|-1---------0------0------0--------||
|-----2-----------2--|--------1------1------1------1----||
|--------------------|----------------------------------||x2
|--------------------|----------------------------------||
|-1------------------|----0-----------------------------||

son...             my   son....
 tell...           you   once....

_____________________________________________________________
Lyrics:

Verse 1:
Put one foot in front of the other
Is all I know
Before you know it youll be falling down the road

And over at the crossroad they stole the sign
So all you do is walk through a straight line

Chorus:
Listen, listen, my son, my son
I wont tell you twice what I cant tell you once

Verse 2:
They bypassed the route I used to take
But you cant escape the time you now make

So I find myself on the highway on my own
The median s my pathway and my home

Chorus:
Listen,listen, my son, my son
I wont tell you twice what I cant tell you once

___________________________________________________________

Guitar 2:

|----12--10--12--8--12--7--12--|
|-10---------------------------|
|------------------------------|
|------------------------------|
|------------------------------|
|------------------------------|

Guitar 3 (bass)

|-----------------------------------------|
|---------------1-------3----3----3-------|
|------2----------------------------------|
|----2---2----2---2---2----2----2----2----|
|-----------------------------------------|
|-----------------------------------------|

http://www.myspace.com/unseenguest
 
 
The Unseen Guest - Listen My Son Tab :: indexed at Ultimate Guitar.
Listen My Son tabs @ 911Tabs
People who played The Unseen Guest - Listen My Son Tab also played these songs by The Unseen Guest:
Let Me In Chords, Let Me In Chords, Let Me In, Let Me In

Quick tip, so you can enjoy Listen My Son Tab even more:

YourChords.com Guitar Chords and Tabs Archive is currently indexing over 240'000 songs from 21'000+ different artists. And new chords just keep on coming in, so you will surely never run out of them.

Show us your talent, perform Listen My Son Tab!

Here you can post a video or audio performance. Tell me more ...
Where can we find your performance? Tell me more ...
Your comment:
Please, log in to post your performance.