Artists by letter: A B C D E F G H I J K L M N O P Q R S T U V W X Y Z 0-9

 
Bulimic Tab
----------------------------------------------------------------------------
			     Bulimic - The Used
----------------------------------------------------------------------------



Guitar 1: D A D G B E
Guitar 2: D A D G B E



Guitar 1:

E  E  E  E  E  E  E  E     E  E  E  E  E  E  E  E   
E||--------------------------|--------------------------|
B||--------------------------|--------------------------|
G||--8--8--8--9--8-----8--8--|--8--9--8-----8--8--8--9--|
D||--7--7--7--7--7-----7--7--|--7--7--7-----7--7--7--7--|
A||--7--7--7--7--7-----7--7--|--7--7--7-----7--7--7--7--|
D||--7--7--7--7--7-----7--7--|--7--7--7-----7--7--7--7--|

E  E  E  E  E  E  E  E     E  E  E  E  E  E  E  E   
--------------------------|--------------------------|
--------------------------|--------------------------|
--8--8--8--9--8-----8--8--|--8--9--8-----8--8--8--9--|
--7--7--7--7--7-----7--7--|--7--7--7-----7--7--7--7--|
--7--7--7--7--7-----7--7--|--7--7--7-----7--7--7--7--|
--7--7--7--7--7-----7--7--|--7--7--7-----7--7--7--7--|

E   E   E   E   E  E   E   E      E   E   E  E   E   E   E   E   
---------------------------------|---------------------------------|
---------------------------------|---------------------------------|
---------------------------------|---------------------------------|
--13--13--13--14--13-----13--13--|--13--14--13-----13--13--13--14--|
--11--11--11--11--11-----11--11--|--11--11--11-----11--11--11--11--|
--11--11--11--11--11-----11--11--|--11--11--11-----11--11--11--11--|

E   E   E   E   E  E   E   E      E   E   E  E   E   E   E   E   
---------------------------------|---------------------------------|
---------------------------------|---------------------------------|
---------------------------------|---------------------------------|
--13--13--13--14--13-----13--13--|--13--14--13-----13--13--13--14--|
--11--11--11--11--11-----11--11--|--11--11--11-----11--11--11--11--|
--11--11--11--11--11-----11--11--|--11--11--11-----11--11--11--11--|

E  E  E  E  E  E  E  E     E  E  E  E  E  E  E  E   
--------------------------|--------------------------|
--------------------------|--------------------------|
--8--8--8--9--8-----8--8--|--8--9--8-----8--8--8--9--|
--7--7--7--7--7-----7--7--|--7--7--7-----7--7--7--7--|
--7--7--7--7--7-----7--7--|--7--7--7-----7--7--7--7--|
--7--7--7--7--7-----7--7--|--7--7--7-----7--7--7--7--|

E  E  E  E  E  E  E  E     E  E  E  E  E  E  E  E   
--------------------------|--------------------------|
--------------------------|--------------------------|
--8--8--8--9--8-----8--8--|--8--9--8-----8--8--8--9--|
--7--7--7--7--7-----7--7--|--7--7--7-----7--7--7--7--|
--7--7--7--7--7-----7--7--|--7--7--7-----7--7--7--7--|
--7--7--7--7--7-----7--7--|--7--7--7-----7--7--7--7--|

E   E   E   E   E  E   E   E      E   E   E  E   E   E   E   E   
---------------------------------|---------------------------------|
---------------------------------|---------------------------------|
---------------------------------|---------------------------------|
--13--13--13--14--13-----13--13--|--13--14--13-----13--13--13--14--|
--11--11--11--11--11-----11--11--|--11--11--11-----11--11--11--11--|
--11--11--11--11--11-----11--11--|--11--11--11-----11--11--11--11--|

E   E   E   E   E  E   E   E      E   E   E  E   E   E   E   E   
---------------------------------|---------------------------------|
---------------------------------|---------------------------------|
---------------------------------|---------------------------------|
--13--13--13--14--13-----13--13--|--13--14--13-----13--13--13--14--|
--11--11--11--11--11-----11--11--|--11--11--11-----11--11--11--11--|
--11--11--11--11--11-----11--11--|--11--11--11-----11--11--11--11--|

E  E  E  E  E  E  E  E     E  E  E  E  E  E  E  E   
--------------------------|--------------------------|
--------------------------|--------------------------|
--8--8--8--9--8-----8--8--|--8--9--8-----8--8--8--9--|
--7--7--7--7--7-----7--7--|--7--7--7-----7--7--7--7--|
--7--7--7--7--7-----7--7--|--7--7--7-----7--7--7--7--|
--7--7--7--7--7-----7--7--|--7--7--7-----7--7--7--7--|

E  E  E  E  E  E  E  E     E  E  E  E  E  E  E  E   
--------------------------|--------------------------|
--------------------------|--------------------------|
--8--8--8--9--8-----8--8--|--8--9--8-----8--8--8--9--|
--7--7--7--7--7-----7--7--|--7--7--7-----7--7--7--7--|
--7--7--7--7--7-----7--7--|--7--7--7-----7--7--7--7--|
--7--7--7--7--7-----7--7--|--7--7--7-----7--7--7--7--|

E   E   E   E   E  E   E   E      E   E   E  E   E   E   E   E   
---------------------------------|---------------------------------|
---------------------------------|---------------------------------|
---------------------------------|---------------------------------|
--13--13--13--14--13-----13--13--|--13--14--13-----13--13--13--14--|
--11--11--11--11--11-----11--11--|--11--11--11-----11--11--11--11--|
--11--11--11--11--11-----11--11--|--11--11--11-----11--11--11--11--|

E   E   E   E   E  E   E   E      E   E   E  E   E   E   E   E   
---------------------------------|---------------------------------|
---------------------------------|---------------------------------|
---------------------------------|---------------------------------|
--13--13--13--14--13-----13--13--|--13--14--13-----13--13--13--14--|
--11--11--11--11--11-----11--11--|--11--11--11-----11--11--11--11--|
--11--11--11--11--11-----11--11--|--11--11--11-----11--11--11--11--|

E  E  E  E  E  E  E  E     E  E  E  E  E  E  E  E   
--0--0--0--0--0--0--0--0--|--0--0--0--0--0--0--0--0--|
--0--0--0--0--0--0--0--0--|--0--0--0--0--0--0--0--0--|
--9--9--9--9--9--9--9--9--|--9--9--9--9--9--9--9--9--|
--7--7--7--7--7--7--7--7--|--7--7--7--7--7--7--7--7--|
--7--7--7--7--7--7--7--7--|--7--7--7--7--7--7--7--7--|
--7--7--7--7--7--7--7--7--|--7--7--7--7--7--7--7--7--|

E  E  E  E  E  E  E  E     E  E  E  E  E  E  E  E   
--0--0--0--0--0--0--0--0--|--0--0--0--0--0--0--0--0--|
--0--0--0--0--0--0--0--0--|--0--0--0--0--0--0--0--0--|
--9--9--9--9--9--9--9--9--|--9--9--9--9--9--9--9--9--|
--7--7--7--7--7--7--7--7--|--7--7--7--7--7--7--7--7--|
--7--7--7--7--7--7--7--7--|--7--7--7--7--7--7--7--7--|
--7--7--7--7--7--7--7--7--|--7--7--7--7--7--7--7--7--|

E   E   E   E   E   E   E   E      E   E   E   E   E   E   E   E   
---0---0---0---0---0---0---0---0--|---0---0---0---0---0---0---0---0--|
---0---0---0---0---0---0---0---0--|---0---0---0---0---0---0---0---0--|
--13--13--13--13--13--13--13--13--|--13--13--13--13--13--13--13--13--|
--11--11--11--11--11--11--11--11--|--11--11--11--11--11--11--11--11--|
--11--11--11--11--11--11--11--11--|--11--11--11--11--11--11--11--11--|
--11--11--11--11--11--11--11--11--|--11--11--11--11--11--11--11--11--|

E   E   E   E   E   E   E   E      E   E   E   E   E   E   E   E   
---0---0---0---0---0---0---0---0--|---0---0---0---0---0---0---0---0--|
---0---0---0---0---0---0---0---0--|---0---0---0---0---0---0---0---0--|
--13--13--13--13--13--13--13--13--|--13--13--13--13--13--13--13--13--|
--11--11--11--11--11--11--11--11--|--11--11--11--11--11--11--11--11--|
--11--11--11--11--11--11--11--11--|--11--11--11--11--11--11--11--11--|
--11--11--11--11--11--11--11--11--|--11--11--11--11--11--11--11--11--|

E  E  E  E  E  E  E  E     E  E  E  E  E  E  E  E   
--0--0--0--0--0--0--0--0--|--0--0--0--0--0--0--0--0--|
--0--0--0--0--0--0--0--0--|--0--0--0--0--0--0--0--0--|
--9--9--9--9--9--9--9--9--|--9--9--9--9--9--9--9--9--|
--7--7--7--7--7--7--7--7--|--7--7--7--7--7--7--7--7--|
--7--7--7--7--7--7--7--7--|--7--7--7--7--7--7--7--7--|
--7--7--7--7--7--7--7--7--|--7--7--7--7--7--7--7--7--|

E  E  E  E  E  E  E  E     E  E  E  E  E  E  E  E   
--0--0--0--0--0--0--0--0--|--0--0--0--0--0--0--0--0--|
--0--0--0--0--0--0--0--0--|--0--0--0--0--0--0--0--0--|
--9--9--9--9--9--9--9--9--|--9--9--9--9--9--9--9--9--|
--7--7--7--7--7--7--7--7--|--7--7--7--7--7--7--7--7--|
--7--7--7--7--7--7--7--7--|--7--7--7--7--7--7--7--7--|
--7--7--7--7--7--7--7--7--|--7--7--7--7--7--7--7--7--|

E   E   E   E   E   E   E   E      E   E   E   E   E   E   E   E   
---0---0---0---0---0---0---0---0--|---0---0---0---0---0---0---0---0--|
---0---0---0---0---0---0---0---0--|---0---0---0---0---0---0---0---0--|
--13--13--13--13--13--13--13--13--|--13--13--13--13--13--13--13--13--|
--11--11--11--11--11--11--11--11--|--11--11--11--11--11--11--11--11--|
--11--11--11--11--11--11--11--11--|--11--11--11--11--11--11--11--11--|
--11--11--11--11--11--11--11--11--|--11--11--11--11--11--11--11--11--|

E   E   E   E   E   E   E   E      E   E   E   E   E   E   E   E   
---0---0---0---0---0---0---0---0--|---0---0---0---0---0---0---0---0--|
---0---0---0---0---0---0---0---0--|---0---0---0---0---0---0---0---0--|
--13--13--13--13--13--13--13--13--|--13--13--13--13--13--13--13--13--|
--11--11--11--11--11--11--11--11--|--11--11--11--11--11--11--11--11--|
--11--11--11--11--11--11--11--11--|--11--11--11--11--11--11--11--11--|
--11--11--11--11--11--11--11--11--|--11--11--11--11--11--11--11--11--|

E  E  E  E  E  E  E  E     E  E  E  E  E  E  E  E   
--------------------------|--------------------------|
--------------------------|--------------------------|
--8--8--8--9--8-----8--8--|--8--9--8-----8--8--8--9--|
--7--7--7--7--7-----7--7--|--7--7--7-----7--7--7--7--|
--7--7--7--7--7-----7--7--|--7--7--7-----7--7--7--7--|
--7--7--7--7--7-----7--7--|--7--7--7-----7--7--7--7--|

E   E   E   E   E  E   E   E      E   E   E  E   E   E   E   E   
---------------------------------|---------------------------------|
---------------------------------|---------------------------------|
---------------------------------|---------------------------------|
--13--13--13--14--13-----13--13--|--13--14--13-----13--13--13--14--|
--11--11--11--11--11-----11--11--|--11--11--11-----11--11--11--11--|
--11--11--11--11--11-----11--11--|--11--11--11-----11--11--11--11--|

E  E  E  E  E  E  E  E     E  E  E  E  E  E  E  E   
--------------------------|--------------------------|
--------------------------|--------------------------|
--8--8--8--9--8-----8--8--|--8--9--8-----8--8--8--9--|
--7--7--7--7--7-----7--7--|--7--7--7-----7--7--7--7--|
--7--7--7--7--7-----7--7--|--7--7--7-----7--7--7--7--|
--7--7--7--7--7-----7--7--|--7--7--7-----7--7--7--7--|

E   E   E   E   E  E   E   E      E   E   E  E   E   E   E   E   
---------------------------------|---------------------------------|
---------------------------------|---------------------------------|
---------------------------------|---------------------------------|
--13--13--13--14--13-----13--13--|--13--14--13-----13--13--13--14--|
--11--11--11--11--11-----11--11--|--11--11--11-----11--11--11--11--|
--11--11--11--11--11-----11--11--|--11--11--11-----11--11--11--11--|

E  E  E  E  E  E  E  E     E  E  E  E  E  E  E  E   
--------------------------|--------------------------|
--------------------------|--------------------------|
--8--8--8--9--8-----8--8--|--8--9--8-----8--8--8--9--|
--7--7--7--7--7-----7--7--|--7--7--7-----7--7--7--7--|
--7--7--7--7--7-----7--7--|--7--7--7-----7--7--7--7--|
--7--7--7--7--7-----7--7--|--7--7--7-----7--7--7--7--|

E   E   E   E   E  E   E   E      E   E   E  E   E   E   E   E   
---------------------------------|---------------------------------|
---------------------------------|---------------------------------|
---------------------------------|---------------------------------|
--13--13--13--14--13-----13--13--|--13--14--13-----13--13--13--14--|
--11--11--11--11--11-----11--11--|--11--11--11-----11--11--11--11--|
--11--11--11--11--11-----11--11--|--11--11--11-----11--11--11--11--|

E  E  E  E  E  E  E  E     E  E  E  E  E  E  E  E   
--------------------------|--------------------------|
--------------------------|--------------------------|
--8--8--8--9--8-----8--8--|--8--9--8-----8--8--8--9--|
--7--7--7--7--7-----7--7--|--7--7--7-----7--7--7--7--|
--7--7--7--7--7-----7--7--|--7--7--7-----7--7--7--7--|
--7--7--7--7--7-----7--7--|--7--7--7-----7--7--7--7--|

E   E   E   E   E  E   E   E      E   E   E  E   E   E   E   E   
---------------------------------|---------------------------------|
---------------------------------|---------------------------------|
---------------------------------|---------------------------------|
--13--13--13--14--13-----13--13--|--13--14--13-----13--13--13--14--|
--11--11--11--11--11-----11--11--|--11--11--11-----11--11--11--11--|
--11--11--11--11--11-----11--11--|--11--11--11-----11--11--11--11--|

E  E  E  E  E  E  E  E     E  E  E  E  E  E  E  E   
--0--0--0--0--0--0--0--0--|--0--0--0--0--0--0--0--0--|
--0--0--0--0--0--0--0--0--|--0--0--0--0--0--0--0--0--|
--9--9--9--9--9--9--9--9--|--9--9--9--9--9--9--9--9--|
--7--7--7--7--7--7--7--7--|--7--7--7--7--7--7--7--7--|
--7--7--7--7--7--7--7--7--|--7--7--7--7--7--7--7--7--|
--7--7--7--7--7--7--7--7--|--7--7--7--7--7--7--7--7--|

E  E  E  E  E  E  E  E     E  E  E  E  E  E  E  E   
--0--0--0--0--0--0--0--0--|--0--0--0--0--0--0--0--0--|
--0--0--0--0--0--0--0--0--|--0--0--0--0--0--0--0--0--|
--9--9--9--9--9--9--9--9--|--9--9--9--9--9--9--9--9--|
--7--7--7--7--7--7--7--7--|--7--7--7--7--7--7--7--7--|
--7--7--7--7--7--7--7--7--|--7--7--7--7--7--7--7--7--|
--7--7--7--7--7--7--7--7--|--7--7--7--7--7--7--7--7--|

E   E   E   E   E   E   E   E      E   E   E   E   E   E   E   E   
---0---0---0---0---0---0---0---0--|---0---0---0---0---0---0---0---0--|
---0---0---0---0---0---0---0---0--|---0---0---0---0---0---0---0---0--|
--13--13--13--13--13--13--13--13--|--13--13--13--13--13--13--13--13--|
--11--11--11--11--11--11--11--11--|--11--11--11--11--11--11--11--11--|
--11--11--11--11--11--11--11--11--|--11--11--11--11--11--11--11--11--|
--11--11--11--11--11--11--11--11--|--11--11--11--11--11--11--11--11--|

E   E   E   E   E   E   E   E      E   E   E   E   E   E   E   E   
---0---0---0---0---0---0---0---0--|---0---0---0---0---0---0---0---0--|
---0---0---0---0---0---0---0---0--|---0---0---0---0---0---0---0---0--|
--13--13--13--13--13--13--13--13--|--13--13--13--13--13--13--13--13--|
--11--11--11--11--11--11--11--11--|--11--11--11--11--11--11--11--11--|
--11--11--11--11--11--11--11--11--|--11--11--11--11--11--11--11--11--|
--11--11--11--11--11--11--11--11--|--11--11--11--11--11--11--11--11--|

E  E  E  E  E  E  E  E     E  E  E  E  E  E  E  E   
--0--0--0--0--0--0--0--0--|--0--0--0--0--0--0--0--0--|
--0--0--0--0--0--0--0--0--|--0--0--0--0--0--0--0--0--|
--9--9--9--9--9--9--9--9--|--9--9--9--9--9--9--9--9--|
--7--7--7--7--7--7--7--7--|--7--7--7--7--7--7--7--7--|
--7--7--7--7--7--7--7--7--|--7--7--7--7--7--7--7--7--|
--7--7--7--7--7--7--7--7--|--7--7--7--7--7--7--7--7--|

E  E  E  E  E  E  E  E     E  E  E  E  E  E  E  E   
--0--0--0--0--0--0--0--0--|--0--0--0--0--0--0--0--0--|
--0--0--0--0--0--0--0--0--|--0--0--0--0--0--0--0--0--|
--9--9--9--9--9--9--9--9--|--9--9--9--9--9--9--9--9--|
--7--7--7--7--7--7--7--7--|--7--7--7--7--7--7--7--7--|
--7--7--7--7--7--7--7--7--|--7--7--7--7--7--7--7--7--|
--7--7--7--7--7--7--7--7--|--7--7--7--7--7--7--7--7--|

E   E   E   E   E   E   E   E      E   E   E   E   E   E   E   E   
---0---0---0---0---0---0---0---0--|---0---0---0---0---0---0---0---0--|
---0---0---0---0---0---0---0---0--|---0---0---0---0---0---0---0---0--|
--13--13--13--13--13--13--13--13--|--13--13--13--13--13--13--13--13--|
--11--11--11--11--11--11--11--11--|--11--11--11--11--11--11--11--11--|
--11--11--11--11--11--11--11--11--|--11--11--11--11--11--11--11--11--|
--11--11--11--11--11--11--11--11--|--11--11--11--11--11--11--11--11--|

E   E   E   E   E   E   E   E      E   E   E   E   E   E   E   E   
---0---0---0---0---0---0---0---0--|---0---0---0---0---0---0---0---0--|
---0---0---0---0---0---0---0---0--|---0---0---0---0---0---0---0---0--|
--13--13--13--13--13--13--13--13--|--13--13--13--13--13--13--13--13--|
--11--11--11--11--11--11--11--11--|--11--11--11--11--11--11--11--11--|
--11--11--11--11--11--11--11--11--|--11--11--11--11--11--11--11--11--|
--11--11--11--11--11--11--11--11--|--11--11--11--11--11--11--11--11--|

Pick chords from the chorus                                         
  H                           Q    Q       H         Q      E    E    
--0---------------------------L----0----|--L---------------(0)-------|
--0---------------------------L----0----|--L-------------------------|
--8---------------------------L----9----|--L--------(9)---------(8)--|
----------------------------------------|----------------------------|
----------------------------------------|----------------------------|
----------------------------------------|----------------------------|

E   E    E    E    E    Q      E       Q      Q      E    Q      E    
---------------(0)-------(0)---------|---------(0)----------------(0)--|
-------------------------------------|--(0)----------------(0)---------|
--L--(9)--(8)-------(8)---------(8)--|----------------(8)--------------|
-------------------------------------|---------------------------------|
-------------------------------------|---------------------------------|
-------------------------------------|---------------------------------|

H        Q    Q       H         Q      E    E    
--0--------L----0----|--L---------------(0)-------|
--0--------L----0----|--L-------------------------|
--8--------L----9----|--L--------(9)---------(8)--|
---------------------|----------------------------|
---------------------|----------------------------|
---------------------|----------------------------|

E   E    E    E    E    Q      E       Q      Q      E    Q      E    
---------------(0)-------(0)---------|---------(0)----------------(0)--|
-------------------------------------|--(0)----------------(0)---------|
--L--(9)--(8)-------(8)---------(8)--|----------------(8)--------------|
-------------------------------------|---------------------------------|
-------------------------------------|---------------------------------|
-------------------------------------|---------------------------------|

W                   W                   W                   W                 
--0----------------|--L----------------|--L----------------|--L------------|
--0----------------|--L----------------|--L----------------|--L------------|
--8----------------|--L----------------|--L----------------|--L------------|
-------------------|-------------------|-------------------|---------------|
-------------------|-------------------|-------------------|---------------|
-------------------|-------------------|-------------------|---------------|

E  E  E  E  E  E  E  E     E  E  E  E  E  E  E  E   
|-0--0--0--0--0--0--0--0--|--0--0--0--0--0--0--0--0-|
|-0--0--0--0--0--0--0--0--|--0--0--0--0--0--0--0--0-|
|-9--9--9--9--9--9--9--9--|--9--9--9--9--9--9--9--9-|
|-7--7--7--7--7--7--7--7--|--7--7--7--7--7--7--7--7-|
|-7--7--7--7--7--7--7--7--|--7--7--7--7--7--7--7--7-|
|-7--7--7--7--7--7--7--7--|--7--7--7--7--7--7--7--7-|

E  E  E  E  E  E  E  E     E  E  E  E  E  E  E  E   
--0--0--0--0--0--0--0--0--|--0--0--0--0--0--0--0--0--|
--0--0--0--0--0--0--0--0--|--0--0--0--0--0--0--0--0--|
--9--9--9--9--9--9--9--9--|--9--9--9--9--9--9--9--9--|
--7--7--7--7--7--7--7--7--|--7--7--7--7--7--7--7--7--|
--7--7--7--7--7--7--7--7--|--7--7--7--7--7--7--7--7--|
--7--7--7--7--7--7--7--7--|--7--7--7--7--7--7--7--7--|

E   E   E   E   E   E   E   E      E   E   E   E   E   E   E   E   
---0---0---0---0---0---0---0---0--|---0---0---0---0---0---0---0---0--|
---0---0---0---0---0---0---0---0--|---0---0---0---0---0---0---0---0--|
--13--13--13--13--13--13--13--13--|--13--13--13--13--13--13--13--13--|
--11--11--11--11--11--11--11--11--|--11--11--11--11--11--11--11--11--|
--11--11--11--11--11--11--11--11--|--11--11--11--11--11--11--11--11--|
--11--11--11--11--11--11--11--11--|--11--11--11--11--11--11--11--11--|

E   E   E   E   E   E   E   E      E   E   E   E   E   E   E   E   
---0---0---0---0---0---0---0---0--|---0---0---0---0---0---0---0---0--|
---0---0---0---0---0---0---0---0--|---0---0---0---0---0---0---0---0--|
--13--13--13--13--13--13--13--13--|--13--13--13--13--13--13--13--13--|
--11--11--11--11--11--11--11--11--|--11--11--11--11--11--11--11--11--|
--11--11--11--11--11--11--11--11--|--11--11--11--11--11--11--11--11--|
--11--11--11--11--11--11--11--11--|--11--11--11--11--11--11--11--11--|

E  E  E  E  E  E  E  E     E  E  E  E  E  E  E  E   
--0--0--0--0--0--0--0--0--|--0--0--0--0--0--0--0--0--|
--0--0--0--0--0--0--0--0--|--0--0--0--0--0--0--0--0--|
--9--9--9--9--9--9--9--9--|--9--9--9--9--9--9--9--9--|
--7--7--7--7--7--7--7--7--|--7--7--7--7--7--7--7--7--|
--7--7--7--7--7--7--7--7--|--7--7--7--7--7--7--7--7--|
--7--7--7--7--7--7--7--7--|--7--7--7--7--7--7--7--7--|

E  E  E  E  E  E  E  E     E  E  E  E  E  E  E  E   
--0--0--0--0--0--0--0--0--|--0--0--0--0--0--0--0--0--|
--0--0--0--0--0--0--0--0--|--0--0--0--0--0--0--0--0--|
--9--9--9--9--9--9--9--9--|--9--9--9--9--9--9--9--9--|
--7--7--7--7--7--7--7--7--|--7--7--7--7--7--7--7--7--|
--7--7--7--7--7--7--7--7--|--7--7--7--7--7--7--7--7--|
--7--7--7--7--7--7--7--7--|--7--7--7--7--7--7--7--7--|

E   E   E   E   E   E   E   E      E   E   E   E   E   E   E   E   
---0---0---0---0---0---0---0---0--|---0---0---0---0---0---0---0---0--|
---0---0---0---0---0---0---0---0--|---0---0---0---0---0---0---0---0--|
--13--13--13--13--13--13--13--13--|--13--13--13--13--13--13--13--13--|
--11--11--11--11--11--11--11--11--|--11--11--11--11--11--11--11--11--|
--11--11--11--11--11--11--11--11--|--11--11--11--11--11--11--11--11--|
--11--11--11--11--11--11--11--11--|--11--11--11--11--11--11--11--11--|

E   E   E   E   E   E   E   E      E   E   E   E   E   E   E   E   
---0---0---0---0---0---0---0---0--|---0---0---0---0---0---0---0---0--|
---0---0---0---0---0---0---0---0--|---0---0---0---0---0---0---0---0--|
--13--13--13--13--13--13--13--13--|--13--13--13--13--13--13--13--13--|
--11--11--11--11--11--11--11--11--|--11--11--11--11--11--11--11--11--|
--11--11--11--11--11--11--11--11--|--11--11--11--11--11--11--11--11--|
--11--11--11--11--11--11--11--11--|--11--11--11--11--11--11--11--11--|

E  E  E  E  E  E  E  E     E  E  E  E  E  E  E  E   
--0--0--0--0--0--0--0--0--|--0--0--0--0--0--0--0--0--|
--0--0--0--0--0--0--0--0--|--0--0--0--0--0--0--0--0--|
--9--9--9--9--9--9--9--9--|--9--9--9--9--9--9--9--9--|
--7--7--7--7--7--7--7--7--|--7--7--7--7--7--7--7--7--|
--7--7--7--7--7--7--7--7--|--7--7--7--7--7--7--7--7--|
--7--7--7--7--7--7--7--7--|--7--7--7--7--7--7--7--7--|

E  E  E  E  E  E  E  E     E  E  E  E  E  E  E  E   
--0--0--0--0--0--0--0--0--|--0--0--0--0--0--0--0--0--|
--0--0--0--0--0--0--0--0--|--0--0--0--0--0--0--0--0--|
--9--9--9--9--9--9--9--9--|--9--9--9--9--9--9--9--9--|
--7--7--7--7--7--7--7--7--|--7--7--7--7--7--7--7--7--|
--7--7--7--7--7--7--7--7--|--7--7--7--7--7--7--7--7--|
--7--7--7--7--7--7--7--7--|--7--7--7--7--7--7--7--7--|

E   E   E   E   E   E   E   E                                           
---0---0---0---0---0---0---0---0--|
---0---0---0---0---0---0---0---0--|
--13--13--13--13--13--13--13--13--|
--11--11--11--11--11--11--11--11--|
--11--11--11--11--11--11--11--11--|
--11--11--11--11--11--11--11--11--|



Guitar 2: Clean



E   E    E    E    E    Q      E    
|---------------(0)-------(0)---------|
|-------------------------------------|
|-----(9)--(8)-------(8)---------(8)--|
|-------------------------------------|
|-------------------------------------|
|-------------------------------------|

Q      Q      E    Q      E       Q      Q      Q      E    E    
---------(0)----------------(0)--|-----------------------(0)-------|
--(0)----------------(0)---------|--(0)----------------------------|
----------------(8)--------------|---------(8)----(9)---------(8)--|
---------------------------------|---------------------------------|
---------------------------------|---------------------------------|
---------------------------------|---------------------------------|

H         Q      E    E      E   E    E    E    E    Q      E    
--L---------------(0)-------|---------------(0)-------(0)---------|
----------------------------|-------------------------------------|
--L--------(9)---------(8)--|--L--(9)--(8)-------(8)---------(8)--|
----------------------------|-------------------------------------|
----------------------------|-------------------------------------|
----------------------------|-------------------------------------|

Q      Q      E    Q      E                                            
---------(0)----------------(0)--|
--(0)----------------(0----------|
----------------(8)--------------|
---------------------------------|
---------------------------------|
---------------------------------|



Q    E   Q    E   Q       E   Q    E   Q     Q     
-------|-----------12----L--------|-----12----L--------12----|
-------|--10----L-----------10----|--L-----------10----------|
-------|--------------------------|--------------------------|
-------|--------------------------|--------------------------|
-------|--------------------------|--------------------------|
-------|--------------------------|--------------------------|

Q    E   Q    E  Q       E   Q    E  Q     Q        Q    E   Q    E   Q     
----------12----L-------|-----12----L-------12----|-----------12----L------|
--9----L-----------9----|--L-----------9----------|--10----L-----------10--|
------------------------|-------------------------|------------------------|
------------------------|-------------------------|------------------------|
------------------------|-------------------------|------------------------|
------------------------|-------------------------|------------------------|

E   Q    E   Q     Q       Q    E   Q    E  Q       E   Q    E  Q     Q     
-----12----L--------12----|----------12----L-------|-----12----L-------12--|
--L-----------10----------|--9----L-----------9----|--L-----------9--------|
--------------------------|------------------------|-----------------------|
--------------------------|------------------------|-----------------------|
--------------------------|------------------------|-----------------------|
--------------------------|------------------------|-----------------------|

Q    E   Q    E   Q       E   Q    E   Q     Q       Q    E   Q    E  Q     
-----------12----L--------|-----12----L--------12----|----------12---------|
--10----L-----------10----|--L-----------10----------|--9----L--------9----|
--------------------------|--------------------------|---------------------|
--------------------------|--------------------------|---------------------|
--------------------------|--------------------------|---------------------|
--------------------------|--------------------------|---------------------|

E   Q    E  Q     Q        H        Q     Q       H        H         
-----12----L-------12----|-----------------12----|--L-----------------|
--L-----------9----------|--10--------L----------|--------------------|
-------------------------|-----------------------|--------------------|
-------------------------|-----------------------|--------------------|
-------------------------|-----------------------|--------------------|
-------------------------|-----------------------|--------------------|



Duration Legend
---------------
W - whole
H - half
Q - quarter
E - 8th
S - 16th
T - 32nd
X - 64th
. - note dotted
|-n-|  - n-tuplets

Tablature Legend
----------------
L - tied note
x - dead note
g - grace note
(n) - ghost note
> - accentuded note
NH - natural harmonic
AH - artificial harmonic
TH - tapped harmonic
SH - semi harmonic
PH - pitch harmonic
h - hammer on
p - pull off
b - bend
br - bendRelease
pb - preBend
pbr - preBendRelease
brb - bendReleaseBend
\n/ - tremolo bar dip
\n - tremolo bar dive
-/n - tremolo bar Release up
/n\ - tremolo bar inverted dip
/n - tremolo bar return
-\n - tremolo bar Release down
S - shift slide
s - legato slide
/ -  slide into from below or out of upwards
\ -  slide into from above or out of downwards
~ - vibrato
W - wide vibrato
tr - trill
TP - tremolo picking
T - tapping
S - slap
P - pop
< - fade in
^ - brush up
v - brush down

 
 
Used - Bulimic Tab :: indexed at Ultimate Guitar.
Bulimic tabs @ 911Tabs

About the artist behind Bulimic Tab:

The Used is a rock band from Orem, Utah. Their sound has been classified under many genres and subgenres of rock. They signed with Reprise Records in late 2001 and rose to fame in June 2002 after releasing their debut self-titled album, The Used. They followed up with their second album, In Love and Death, in September 2004 and their third album, Lies for the Liars, in May 2007. An EP, Shallow Believer, was released in February 2008 that featured the band's B-sides. They are currently working on their fourth studio album, due out in late 2008. They have achieved a Gold or Platinum status in over 6 countries worldwide.[4]

Indexed at Wikipedia.

Show us your talent, perform Bulimic Tab!

Here you can post a video or audio performance. Tell me more ...
Where can we find your performance? Tell me more ...
Your comment:
Please, log in to post your performance.