Artists by letter: A B C D E F G H I J K L M N O P Q R S T U V W X Y Z 0-9

 
Aurora Tab
Song:Aurora
Artist:Foo Fighters
Album:There is Nothing Left to Lose

Tabbed by ben3296([email protected])

Standard Tuning (eBGDAE)
Moderate Speed - about 125 bpm
4/4

Guitar 1 - slight distortion with 8th echoes
Guitar 2 - slight distortion with dotted 4th echoes
Guitars 3 & 4 - distortion with no echo
Guitar 5 - slight distortion with no echo

Intro
-----
Guitar 1
e-|----------------|----------------|            |----------------|
B-|----------------|----------------|            |----------------|
G-|----------6---7-|----9-------6-7-|play 4      |------9---------|
D-|--7-6---9-------|7-----9---7-----|times then  |6---7---7---7-9-|
A-|0-----0-----0---|--0-----0-------|            |--7-------0-----|
E-|----------------|----------------|            |----------------|

Guitar 1 RIFF A                                             END RIFF A
e-|----------------|----------------|----------------|----------------|
B-|----------------|----------------|----------------|----------------|
G-|----------------|7-------9-7-6---|------7-9-----6-|--7-7-----------|
D-|--7---6---8---7-|--6---7---------|7-6---------9---|------7---7-7-7-|
A-|0---0---0---0---|----0---------0-|----7-----0-----|0-------0-------|
E-|----------------|----------------|----------------|----------------|



Verse
-----
Guitar 1 w/Riff A 6 times

Guitar 2
e-|7-------|--------|--------|--------|7-------|--------|--------|--------|
B-|10------|-------9|--------|--------|10------|------10|---9--10|--------|
G-|9-------|--------|-------9|--------|9-------|--------|-9---9--|--------|
D-|7-------|--------|--------|--------|7-------|--------|--------|--------|
A-|--------|--------|--------|--------|--------|--------|--------|--------|
E-|--------|--------|--------|--------|--------|--------|--------|--------|

e-|7-------|--------|-------7|--------|7-------|--------|--------|--------|
B-|10------|-------9|---10---|-10-----|10------|------10|--10--10|--------|
G-|9-------|--------|-9---9--|---9----|9-------|--------|-9---9--|-9------|
D-|7-------|--------|--------|-----7--|7-------|--------|--------|--------|
A-|--------|--------|--------|-------0|--------|--------|--------|--------|
E-|--------|--------|--------|--------|--------|--------|--------|--------|

e-|7-------|--------|---7----|--------|7-------|--------|--------|--------|
B-|10-----9|------10|----10-9|--------|10------|---10-10|---10---|---10---|
G-|9-------|-9------|-9------|-9------|9-------|-----9--|-9---9--|--9-----|
D-|7-------|---7----|--------|--------|7-------|--------|------7-|------77|
A-|--------|---0----|--------|--------|--------|--------|--------|------00|
E-|--------|--------|--------|--------|--------|--------|--------|--------|



Chorus
------
Guitar 3
e-|-------------------|----------------|----------------|
B-|10--10--10-10-10-9-|--9-9-9-9-9-7-7-|--9-------------|
G-|-------------------|----------------|----9-------9-9-|
D-|-------------------|----------------|----------------|
A-|-------------------|----------------|----------------|
E-|-------------------|----------------|----------------|
                      |                |                |play 2
Guitar 4              |                |                |times
e-|-------------------|----------------|----------------|
B-|-------------------|----------------|----------------|
G-|6---6---6--6-----6-|--6-6-6-6-4---4-|--2-2-------2-2-|
D-|7---7---7--7-----6-|--6-6-6-6-6-0-2-|--2-2-------2-2-|
A-|0---0---0--0-----0-|--0-0-0-0-0-0-0-|--0-0-------0-0-|
E-|-------------------|----------------|----------------|

Guitar 3
e-|----------------|----------------|----------------|---------------------|
B-|----------------|----------------|--------------7-|--7-7-10-10-10-10-10-|
G-|7-------------7-|--------------7-|--7-7-9---9-9---|---------------------|
D-|----------------|----------------|----------------|---------------------|
A-|----------------|----------------|----------------|---------------------|
E-|----------------|----------------|----------------|---------------------|
                   |                |                |                     |
Guitar 4           |                |                |                     |
e-|----------------|----------------|----------------|---------------------|
B-|----------------|----------------|----------------|---------------------|
G-|7-------------7-|--------------7-|--7-7-7---7-7-7-|--7-7-11-11-11-9--11-|
D-|6-------------4-|--------------6-|--6-6-7---7-7-9-|--9-7-0--0--0--0--0--|
A-|0-------------0-|--------------0-|--0-0-0---0-0-0-|--0-0-0--0--0--0--0--|
E-|----------------|----------------|----------------|---------------------|

Guitar 3
e-|-------------------|----------------|----------------|
B-|10--10--10-10-10-9-|--9-9-9-9-9-7-7-|--9-------------|
G-|-------------------|----------------|----9---9-9---7-|
D-|-------------------|----------------|--------------0-|
A-|-------------------|----------------|----------------|
E-|-------------------|----------------|----------------|
                      |                |                |
Guitar 4              |                |                |
e-|-------------------|----------------|----------------|
B-|-------------------|----------------|----------------|
G-|6---6---6--6-----6-|--6-6-6-6-4---4-|--2-2---2-2-0-7-|
D-|7---7---7--7-----6-|--6-6-6-6-6-0-2-|--2-2---2-2-0-0-|
A-|0---0---0--0-----0-|--0-0-0-0-0-0-0-|--0-0---0-0-----|
E-|-------------------|----------------|----------------|



Guitars 3 & 4
e-|----------------|----------------|----------------|----------------|
B-|--------3-5-----|----------------|--------3-5-----|----------------|
G-|--6-4-2-4-6-0---|--------------7-|--6-4-2-4-6-0---|--------------7-|
D-|--0-0-0-0-0-0-7-|--6-4-2-------0-|--0-0-0-0-0-0-7-|7-6-4-2---2-2-0-|
A-|--------------0-|--0-0-0-4-2-0---|--------------0-|0-0-0-0---0-0---|
E-|----------------|----------------|----------------|----------------|

e-|----------------|----------------|----------------|----------------|
B-|--------3-5-----|----------------|----------------|------2---0-----|
G-|--6-4-2-4-6-0---|----------------|--0-------0---2-|--0-------------|
D-|--0-0-0-0-0-0-7-|--6-4-2---------|----------------|----------------|
A-|--------------0-|--0-0-0-4-2-0-3-|----3-5---------|----0---------3-|
E-|----------------|--------------1-|----1-3-----0---|--------------1-|

e-|----------------|
B-|----------------|
G-|--0-------0-----|
D-|----------------|
A-|----3-5-----5---|
E-|----1-3-----3---|



Interlude
---------
Guitar 1
e-|----------------|----------------|----------------|
B-|----------------|----------------|----------------|
G-|----------6---7-|----9-------6-7-|------9---------|then Guitar 1 w/Riff A
D-|--7-6---9-------|7-----9---7-----|6---7---7---7-9-|
A-|0-----0-----0---|--0-----0-------|--7-------0-----|
E-|----------------|----------------|----------------|



Verse
-----
Guitar 1 w/Riff A 4 times

Guitar 2
e-|7-------|--------|--------|--------|7-------|---7----|--------|--------|
B-|10------|-------9|----9---|--------|10------|-----9--|---9----|--------|
G-|9-------|--------|-------9|--------|9-------|-------9|-------9|--------|
D-|7-------|--------|--------|--------|7-------|--------|--------|--------|
A-|--------|--------|--------|--------|--------|--------|--------|--------|
E-|--------|--------|--------|--------|--------|--------|--------|--------|

e-|7-------|--------|-------7|--------|7-------|--------|--------|--------|
B-|10------|---10--9|---10---|-10-----|10------|--------|--------|--------|
G-|9-------|--------|-9---9--|---9----|9-------|--999999|99999999|9999999-|
D-|7-------|--------|--------|-----7--|7-------|--777777|77777777|7777777-|
A-|--------|--------|--------|-------0|--------|--------|--------|-------0|
E-|--------|--------|--------|--------|--------|--------|--------|-------0|
                                         Guitar 2 tacet
                                                  Guitar 4

Chorus
------
Guitar 3
e-|-------------------|----------------|----------------|
B-|10--10--10-10-10-9-|--9-9-9-9-9-7-7-|--9-------------|
G-|-------------------|----------------|----9-------9-9-|
D-|-------------------|----------------|----------------|
A-|-------------------|----------------|----------------|
E-|-------------------|----------------|----------------|
                      |                |                |play 2
Guitar 4              |                |                |times
e-|-------------------|----------------|----------------|
B-|-------------------|----------------|----------------|
G-|6---6---6--6-----6-|--6-6-6-6-4---4-|--2-2-------2-2-|
D-|7---7---7--7-----6-|--6-6-6-6-6-0-2-|--2-2-------2-2-|
A-|0---0---0--0-----0-|--0-0-0-0-0-0-0-|--0-0-------0-0-|
E-|-------------------|----------------|----------------|

Guitar 3
e-|----------------|----------------|----------------|---------------------|
B-|----------------|----------------|--------------7-|--7-7-10-10-10-10-10-|
G-|7-------------7-|--------------7-|--7-7-9---9-9---|---------------------|
D-|----------------|----------------|----------------|---------------------|
A-|----------------|----------------|----------------|---------------------|
E-|----------------|----------------|----------------|---------------------|
                   |                |                |                     |
Guitar 4           |                |                |                     |
e-|----------------|----------------|----------------|---------------------|
B-|----------------|----------------|----------------|---------------------|
G-|7-------------7-|--------------7-|--7-7-7---7-7-7-|--7-7-11-11-11-9--11-|
D-|6-------------4-|--------------6-|--6-6-7---7-7-9-|--9-7-0--0--0--0--0--|
A-|0-------------0-|--------------0-|--0-0-0---0-0-0-|--0-0-0--0--0--0--0--|
E-|----------------|----------------|----------------|---------------------|

Guitar 3
e-|-------------------|----------------|----------------|
B-|10--10--10-10-10-9-|--9-9-9-9-9-7-7-|--9-------------|
G-|-------------------|----------------|----9---9-9---7-|
D-|-------------------|----------------|--------------0-|
A-|-------------------|----------------|----------------|
E-|-------------------|----------------|----------------|
                      |                |                |
Guitar 4              |                |                |
e-|-------------------|----------------|----------------|
B-|-------------------|----------------|----------------|
G-|6---6---6--6-----6-|--6-6-6-6-4---4-|--2-2---2-2-0-7-|
D-|7---7---7--7-----6-|--6-6-6-6-6-0-2-|--2-2---2-2-0-0-|
A-|0---0---0--0-----0-|--0-0-0-0-0-0-0-|--0-0---0-0-----|
E-|-------------------|----------------|----------------|



Guitars 3 & 4
e-|----------------|----------------|----------------|----------------|
B-|--------3-5-----|----------------|--------3-5-----|----------------|
G-|--6-4-2-4-6-0---|--------------7-|--6-4-2-4-6-0---|--------------7-|
D-|--0-0-0-0-0-0-7-|--6-4-2-------0-|--0-0-0-0-0-0-7-|7-6-4-2---2-2-0-|
A-|--------------0-|--0-0-0-4-2-0---|--------------0-|0-0-0-0---0-0---|
E-|----------------|----------------|----------------|----------------|

e-|----------------|----------------|----------------|----------------|
B-|--------3-5-----|----------------|----------------|------2---0-----|
G-|--6-4-2-4-6-0---|----------------|--0-------0---2-|--0-------------|
D-|--0-0-0-0-0-0-7-|--6-4-2---------|----------------|----------------|
A-|--------------0-|--0-0-0-4-2-0-3-|----3-5---------|----0---------3-|
E-|----------------|--------------1-|----1-3-----0---|--------------1-|

e-|----------------|----------------|
B-|----------------|----------------|
G-|--0-------0---2-|----------------|
D-|--------------2-|--------------4-|
A-|----3-5-------0-|--4-4-4-4-2-0-4-|
E-|----1-3-----0---|--------------2-|



Bridge
------
Guitars 3 & 4
e-|------0---------|----------------|------0---------|----------------|
B-|----------0-----|----------------|------0---0-----|----------------|
G-|--2-----------2-|----------------|--------------1-|----------------|
D-|----4---------4-|--------------2-|--------------2-|----------------|
A-|----------------|--4-4-4-4-2-0-2-|--2-2-----------|--4-4-4-4-2-0---|
E-|----------------|--------------0-|--0-0-----------|--------------0-|

e-|----------------|----------------|------0---------|----------------|
B-|----------------|----------------|----------0-----|----------------|
G-|----0---------2-|--2-------------|--2-----------2-|----------------|
D-|--------------2-|----2---------4-|----4---------4-|--------------2-|
A-|3-3---3-3-5---0-|------0-4-2-0-4-|----------------|--4-4-4-4-2-0-2-|
E-|1-1---1-1-3-0---|--------------2-|----------------|--------------0-|

e-|------0---------|----------------|----------------|----------------|
B-|------0---0-----|----------------|----------------|----------------|
G-|--------------1-|----------------|----0---------2-|--2-----2-2---7-|
D-|--------------2-|----------------|--------------2-|--2---2---2---0-|
A-|--2-2-----------|--4-4-4-4-2-0---|3-3---3-3-5---0-|--0-0-----0-----|
E-|--0-0-----------|--------------0-|1-1---1-1-3-0---|------------0---|



Half-Chorus
-----------
Guitars 3 & 4
e-|----------------|----------------|----------------|----------------|
B-|--------3-5-----|----------------|--------3-5-----|----------------|
G-|--6-4-2-4-6-0---|--------------7-|--6-4-2-4-6-0---|--------------7-|
D-|--0-0-0-0-0-0-7-|--6-4-2-------0-|--0-0-0-0-0-0-7-|7-6-4-2---2-2-0-|
A-|--------------0-|--0-0-0-4-2-0---|--------------0-|0-0-0-0---0-0---|
E-|----------------|----------------|----------------|----------------|

e-|----------------|----------------|----------------|----------------|
B-|--------3-5-----|----------------|----------------|------2---0-----|
G-|--6-4-2-4-6-0---|----------------|--0-------0---2-|--0-------------|
D-|--0-0-0-0-0-0-7-|--6-4-2---------|----------------|----------------|
A-|--------------0-|--0-0-0-4-2-0-3-|----3-5---------|----0---------3-|
E-|----------------|--------------1-|----1-3-----0---|--------------1-|

e-|----------------|----------------|----------------|----------------|
B-|----------------|------2---0-----|----------------|------2---0-----|
G-|--0-------0---2-|--0-------------|--0-------0---2-|--0-------------|
D-|----------------|----------------|----------------|----------------|
A-|----3-5---------|----0---------3-|----3-5---------|----0---------3-|
E-|----1-3-----0---|--------------1-|----1-3-----0---|--------------1-|

e-|----------------|
B-|----------------|
G-|--0-------0-----|
D-|----------------|
A-|----3-5-----5---|
E-|----1-3-----3---|



Interlude
---------
Guitar 1 w/Riff A 2 times

then

Guitar 1
e-|----------------|----------------|
B-|----------------|----------------|
G-|----------------|7-------9-7-6---|
D-|--7---6---8---7-|--6---7---------|
A-|0---0---0---0---|----0---------0-|
E-|----------------|----------------|
                   |                |
Guitar 2           |                |
e-|------------7---|----------------|
B-|------------10--|----------------|
G-|------------9---|--------------9-|
D-|------------7---|----------------|
A-|----------------|----------------|
E-|----------------|----------------|

then

Guitar 1 w/Riff A 3 times

Guitar 2
e-|--------------7-|----------------|--------------7-|----------------|
B-|9-----10--------|--10----------9-|------10--------|--10----------9-|
G-|--9-------9-----|------9---------|--9-------9-----|------9---------|
D-|----7-------7---|----------7-----|----7-------7---|----------7-x---|
A-|----------------|----------------|----------------|----------------|
E-|----------------|----------------|----------------|----------------|

e-|--------------7-|----------------|--------------7-|----------------|
B-|------10--------|--10----------9-|------10--------|--10----------9-|
G-|--9-------9-----|------9---------|--9-------9-----|------9---------|
D-|----7-------7---|----------7-----|----x-------7---|----------------|
A-|----------------|----------------|----------------|----------------|
E-|----------------|----------------|----------------|----------------|

e-|--------------7-|----------------|--------------7-|----------------|
B-|------10--------|--10----------9-|------10--------|----------------|
G-|--9-------9-----|------9---------|--9-------9-----|----------------|
D-|----7-------7---|----------7-----|----7-------7---|----------------|
A-|----------------|----------------|----------------|----------------|
E-|----------------|----------------|----------------|----------------|

then

Guitar 1
e-|------------------|
B-|------------------|
G-|----9-------------|
D-|------9-9-9-11-12-|
A-|0-0-----0-0-0--0--|
E-|------------------|
                     |
Guitar 4             |
e-|7-----------------|
B-|10----------------|
G-|9-----------------|
D-|7-----------------|
A-|------------------|
E-|---------------15\|



Outro
-----
Guitars 3 & 4
e-|----------------|----------------|----------------|----------------|
B-|--2-2-----2---0-|0-----0---0-0-2-|2-2-2---2-2---0-|0---0-0-----0-0-|
G-|--2-2-----2---2-|2-----2---2-2-2-|2-2-2---2-2---2-|2---2-2-----2-2-|play 2
D-|--2-2-----2---2-|2-----2---2-2-2-|2-2-2---2-2---2-|2---2-2-----2-2-|times
A-|0-0-0---0-0---0-|0---0-0---0-0-0-|0-0-0---0-0---0-|0---0-0---0-0-0-|
E-|0---------------|----------------|----------------|----------------|



then

Guitar 1 w/Riff A 4 times

Guitar 3 RIFF B           END RIFF B
e-|----------------|----------------|
B-|----------------|----------------|
G-|----------------|----------------| play 2
D-|7-7-7-7-7-7-7-7-|7-7-7-7-7-7-7-66| times
A-|0-0-0-0-0-0-0-0-|0-0-0-0-0-0-0-00|
E-|----------------|----------------|

Guitar 4
e-|----------------|----------------|----------------|----------------|
B-|----10----12----|--9---10----7---|--9-----5---5-7-|----9---9-10----|
G-|----------------|----------------|----------------|----------------|
D-|----------------|----------------|----------------|----------------|
A-|----------------|----------------|----------------|----------------|
E-|----------------|----------------|----------------|----------------|

e-|----------------|----------------|----------------|----------------|
B-|12------9---10--|--12----14----12|----10----12----|7----10---------|
G-|----------------|----------------|----------------|----------------|
D-|----------------|----------------|----------------|----------------|
A-|----------------|----------------|----------------|----------------|
E-|----------------|----------------|----------------|----------------|

then

Guitar 3 w/Riff B 4 times
Guitar 5 w/RIff A 2 times

and Guitar 2
e-|----------------|----------------|
B-|10--10--10--10--|10--10--10--10--|
G-|----------------|----------------|play 4
D-|----------------|----------------|times
A-|----------------|----------------|
E-|----------------|----------------|

Hope this helps to learn the song
Sorry if it's a bit complicated in places - let me know if there's a problem
Please comment and rate
Apologies for any mistakes - correct me although I think it's all correct
Thanks :)

 
 
Foo Fighters - Aurora Tab :: indexed at Ultimate Guitar.
Aurora tabs @ 911Tabs

About the artist behind Aurora Tab:

Foo Fighters is an American alternative rock band formed by singer/guitarist Dave Grohl in 1995.[1] Grohl formed the group as a one-man project after the dissolution of his previous band Nirvana in 1994. Prior to the release of Foo Fighters in 1995, Grohl drafted Nate Mendel (bass), William Goldsmith (drums), and Pat Smear (guitar) to complete the group. Goldsmith and Smear left after the recording of the group's second album The Colour and the Shape (1997). They were replaced by Taylor Hawkins and Franz Stahl, respectively, although Stahl left prior to the recording of the group's third album, There Is Nothing Left to Lose (1999).

Chris Shiflett joined as the band's second guitarist after the completion of There is Nothing Left to Lose. The band released its fourth album One by One in 2002. The group followed that release with the two-disc In Your Honor (2005), which was split between acoustic songs and harder-rocking material. Foo Fighters released its sixth album Echoes, Silence, Patience & Grace in 2007. Over the course of the band's career, three of its albums have won Grammy Awards for Best Rock Album, and all six have been nominated for Grammys.

Indexed at Wikipedia.

Show us your talent, perform Aurora Tab!

Here you can post a video or audio performance. Tell me more ...
Where can we find your performance? Tell me more ...
Your comment:
Please, log in to post your performance.