Artists by letter: A B C D E F G H I J K L M N O P Q R S T U V W X Y Z 0-9

 
Heaven Nor Hell Tab
Tabbed by: Frede37

verse
e|---------------------------------------------------------------------------|
B|---------------------------------------------------------------------------|
G|---8-8-8-8-8-8-8-8-8-8-8-8-8-8-8-8/13-13-13-13-----------------------------|
D|---8-8-8-8-8-8-8-8-8-8-8-8-8-8-8-8/13-13-13-13-11-13/8-8-8-8-8-8-8-8-8-8---|
A|---6-6-6-6-6-6-6-6-6-6-6-6-6-6-6-6/11-11-11-11-13-13/8-8-8-8-8-8-8-8-8-8---|
E|-----------------------------------------------11-11/6-6-6-6-6-6-6-6-6-6---|

x2
e|---------------------------------------------------------------------------|
B|---------------------------------------------------------------------------|
G|---8-8---8-8---8-8-----8/13-13---------------------------------------------|
D|---8-8---8-8---8-8-----8/13-13---13-13---8-8-------------------------------|
A|---6-6---6-6---6-6-----6/11-11---13-13---8-8-------------------------------|
E|---------------------------------11-11---6-6-------------------------------|

Palm mute!
e|---------------------------------------------------------------------------|
B|---------------------------------------------------------------------------|
G|---8-8-8-8-8-8-8-8-8-8-8-8-8-8-8-8/13-13-13-13-----------------------------|
D|---8-8-8-8-8-8-8-8-8-8-8-8-8-8-8-8/13-13-13-13-11-13/8-8-8-8-8-8-8-8-8-8---|
A|---6-6-6-6-6-6-6-6-6-6-6-6-6-6-6-6/11-11-11-11-13-13/8-8-8-8-8-8-8-8-8-8---|
E|-----------------------------------------------11-11/6-6-6-6-6-6-6-6-6-6---|

Palm mute!
e|---------------------------------------------------------------------------|
B|---------------------------------------------------------------------------|
G|---8-8-8-8-8-8-8-8-8-8-8-8-8-8-8-8/13-13-13-13-----------------------------|
D|---8-8-8-8-8-8-8-8-8-8-8-8-8-8-8-8/13-13-13-13-11-13-----------------------|
A|---6-6-6-6-6-6-6-6-6-6-6-6-6-6-6-6/11-11-11-11-13-13-----------------------|
E|-----------------------------------------------11-11-----------------------|

e|---------------------------------------------------------------------------|
B|---------------------------------------------------------------------------|
G|---------------------------------------------------------------------------|
D|---8-8-8-8-8-8-8-8-8-8-----------------------------------------------------|
A|---8-8-8-8-8-8-8-8-8-8-----------------------------------------------------|
E|---6-6-6-6-6-6-6-6-6-6-----------------------------------------------------|

CHORUS                                                                        x2
e|---------------------------------------------------------------------------|
B|---------------------------------------------------------------------------|
G|---------------------------------------8-8-8-8-8-8-8-8---------------------|
D|---6-6-6-6-6-6-6-6---8-8-8-8-8-8-8-8---8-8-8-8-8-8-8-8---6-6-6-6-6-6-6-6---|
A|---6-6-6-6-6-6-6-6---8-8-8-8-8-8-8-8---6-6-6-6-6-6-6-6---6-6-6-6-6-6-6-6---|
E|---4-4-4-4-4-4-4-4---6-6-6-6-6-6-6-6---------------------4-4-4-4-4-4-4-4---|

e|---------------------------------------------------------------------------|
B|---------------------------------------------------------------------------|
G|---------------------------------------------------------------------------|
D|---6-6-6-6-6-6-6-6---8-8-8-8-8-8-8-8---------------------------------------|
A|---6-6-6-6-6-6-6-6---8-8-8-8-8-8-8-8---------------------------------------|
E|---4-4-4-4-4-4-4-4---6-6-6-6-6-6-6-6---------------------------------------|

Stil working on the bridge
 
 
Volbeat - Heaven Nor Hell Tab :: indexed at Ultimate Guitar.
Heaven Nor Hell tabs @ 911Tabs

Quick tip, so you can enjoy Heaven Nor Hell Tab even more:

After the registration (which takes just 10 seconds, remember?) you will be able to use your profile - your very own piece of YourChords.com.

Show us your talent, perform Heaven Nor Hell Tab!

Here you can post a video or audio performance. Tell me more ...
Where can we find your performance? Tell me more ...
Your comment:
Please, log in to post your performance.