Artists by letter: A B C D E F G H I J K L M N O P Q R S T U V W X Y Z 0-9

 
The Sky Is Crying Tab
The Sky Is Cryin'

Verse 1:

Em7			Am7			                         Em7
      The sky is crying,	 look at the tears rolling down the street
Em7			Am7			                         Em7
      The sky is crying,	 look at the tears rolling down the street
Bm7				Am7		                  Em7
          I looked out my window, the rain is falling down the street

Verse 2:

Em7					Am7			         Em7
     My baby left me this morning,		of course I don't know the reason why
Em7					Am7			         Em7
     My baby left me this morning,		 I oh I don't know the reason why
Bm7					Am7	                    Em7
           And everytime I think about it, I hate my head to (/and) cry

Solo 1:

--------------------------12--------------------|
-------12---10-------10b-----b10---8--------8/--|
-9/11----------------------------------9----9/--|
------------------------------------------------|
------------------------------------------------|
------------------------------------------------|

-------------12-------12b-12----10-----------------------------------|
----10/12---------------------------10b-10--8------------------------|
-------------------------------------------------------119/---------|
---------------------------------------------------------------------|
---------------------------------------------------------------------|
---------------------------------------------------------------------|

------------------------12-------------12--|
-----8---8--10--810/12----b12-10-812b----|
-7/9---9-----------------------------------|
-------------------------------------------|
-------------------------------------------|
-------------------------------------------|

--------10b-10-7-------------------|
---------------------10-8-----/----|
-----------------------------9/----|
-----------------------------------|
-----------------------------------|
-----------------------------------|

Verse 3:
Em7			Am7			                     Em7
     The sun is shining,	 oh no (/and now) it's raining in my heart

------10--7----------------------------|
--------------10--8--------------------|
--/9------------------9/---------------|
---------------------------------------|
---------------------------------------|
---------------------------------------|

Em7			Am7			                     Em7
     The sun is shining,	 oh no (/and now) it's raining in my heart

----------------------------------------7---------------------|
------8---10b--10--8-----------------------10b10--8----8/-----|
-7/9---------------------9/---------------------------9-/-----|
--------------------------------------------------------------|
--------------------------------------------------------------|
--------------------------------------------------------------|

Bm7			Am7		Em7
      I loved my baby, hey the sun is born yeah, 	yes

Solo 2:

I didn't tab this solo out, because it was too difficult for me to hear
 
 
Eric Clapton - The Sky Is Crying Tab :: indexed at Ultimate Guitar.
The Sky Is Crying tabs @ 911Tabs

About the artist behind The Sky Is Crying Tab:

Eric Patrick Clapton, CBE (born 30 March 1945), is a English blues-rock guitarist, singer, songwriter and composer. He is one of the most successful musicians of the 20th and 21st centuries,[1] garnering an unprecedented three inductions into the Rock and Roll Hall of Fame (The Yardbirds, Cream, and solo). Often viewed by critics and fans alike as one of the greatest guitarists of all time[2], Clapton was ranked fourth in Rolling Stone Magazine's list of the "100 Greatest Guitarists of All Time"[3] and #53 on their list of the Immortals: 100 Greatest Artists of All Time.[4]

Although Clapton's musical style has varied throughout his career, it has always remained rooted in the blues. Clapton is credited as an innovator in several phases of his career, which have included blues-rock (with John Mayall & the Bluesbreakers and The Yardbirds) and psychedelic rock (with Cream). Clapton has also achieved great chart success in genres ranging from Delta blues (Me and Mr. Johnson) to pop ("Change the World") and reggae (Bob Marley's "I Shot the Sheriff"). Clapton also achieved fame with Derek and the Dominos through the hit song "Layla".

Indexed at Wikipedia.

Show us your talent, perform The Sky Is Crying Tab!

Here you can post a video or audio performance. Tell me more ...
Where can we find your performance? Tell me more ...
Your comment:
Please, log in to post your performance.