Artists by letter: A B C D E F G H I J K L M N O P Q R S T U V W X Y Z 0-9

 
Sacramento Tab
-----------------------------------------------------------------------------
                        Sacramento - Washya
-----------------------------------------------------------------------------

Intro
Drop D tuning
e|---------------------------------------------------------------|
B|---------------------------------------------------------------|
G|---------------------------------------------------------------|
D|-----------------------------------5---------------5-----------|
A|-----3---5---6---5---3-5-5-5---3-------6---5---3-------3-5-3-5-|
D|-0-0---0---0---0---0---------0---0---0---0---0---0---0---------|
pm . .   .   .   .   .         .   .   .   .   .   .   .

Intro Part 2
e|----------------------------------------------------------|
B|----------------------------------------------------------|
G|---5---7---8---5-7-7-7---5---5---8---7---5---5---5-7-5-7--|
D|-0-5-0-7-0-8-0-5-7-7-7-0-5-0---0-8-0-7-0-5-0---0-5-7-5-7--|
A|-0-3-0-5-0-6-0-3-5-5-5-0-3-0---0-6-0-5-0-3-0---0-3-5-3-5--|
D|-0---0---0---0---------0---0---0---0---0---0---0----------|
pm .   .   .   .         .   .   .   .   .   .   .

Verses
e|-------------------------------------------------------------|
B|-------------------------------------------------------------|
G|-------------------------------------------------------------|
D|-------5-5h6p5-3-5-------------------------3p2p0---------2-5-|
A|---3-5-------------5-3---3-----------3p2p0---------------2-5-|
D|-0---------------------5---3-0-0-0-0-------------0-0-0-0-2-5-|
pm .                           . . . .             . . . .

Chorus
e|--------------------------------------------------|
B|--------------------------------------------------|
G|-4----------------5-------------------------------|
D|-4--2---2-4h6p4h6-5-3---3-1---2---2/4-------------|
A|-2----4---4-------3---5---1-1---1-----7-6-4-------|
D|----------4---------------1-----------------3-2-1-|
pm                                            . . .  
 
 
Washya - Sacramento Tab :: indexed at Ultimate Guitar.
Sacramento tabs @ 911Tabs

Quick tip, so you can enjoy Sacramento Tab even more:

If you don't really know how to deal with "Absus4" chord and his equally confusing brothers, just put the mouse cursor over them and you will be shown a helpful chord diagram.

Show us your talent, perform Sacramento Tab!

Here you can post a video or audio performance. Tell me more ...
Where can we find your performance? Tell me more ...
Your comment:
Please, log in to post your performance.