Artists by letter: A B C D E F G H I J K L M N O P Q R S T U V W X Y Z 0-9

 
Ocean Drive Tab
------------------------------------------------------------------------------
                                   Ocean Drive - Washya
------------------------------------------------------------------------------
Tuning: Standard (EADGBe)
Intro
e|----------------------------------------------------------|
B|----------------------------------------------------------|
G|--------------------------------------6-6-6-4-4-4---------|
D|-3-3-3-6-6-6-4-4-4--------------3-3-3-6-6-6-4-4-4---------|
A|-3-3-3-6-6-6-4-4-4--------------3-3-3-4-4-4-2-2-2-2-2-2-2-|
E|-1-1-1-4-4-4-2-2-2-0-0--0-0-0-0-1-1-1-------------0-0-0-0-|
pm                   . .  . . . .                   . . . .

Verses
e|-----------------------|
B|-----------------------|
G|-----------------------|
D|-----------------------|
A|---------3-3h5p3-----2-|
E|-0-0-3-5---------3-2-0-|
pm . .

Chorus
e|--------------------------------------------------------|
B|--------------------------------------------------------|
G|--------------------------------------------------------|
D|-----------2b-0---0------------------4b-4h5p4-2---------|
A|-2-2-2-2-4------2---2-0-2--2-2-2-2-5------------4-2-----|
E|-0-0-0------------------0--0-0-0------------------0-----|
pm . . .                  .  . . .                  .

Guitar Solo
e|----------------------------------------------------------------|
B|-------------------------------------------------------11-12-14-|
G|---------------------------------------9-10-12-9-10-12----------|
D|-------------------------7-8-10-7-8-10--------------------------|
A|-------------5-6-8-5-6-8----------------------------------------|
E|-3-4-6-3-4-6----------------------------------------------------|
pm . . . . . . . . . . . .

e|----------13-14-16-13-14-16h19p18p16h19p18p16----------------22-22-22~--|
B|-11-12-14-------------------------------------19-18----------22-22-22~--|
G|----------------------------------------------------16----20------------|
D|-------------------------------------------------------19---------------|
A|------------------------------------------------------------------------|
E|------------------------------------------------------------------------|
 
 
Washya - Ocean Drive Tab :: indexed at Ultimate Guitar.
Ocean Drive tabs @ 911Tabs

Quick tip, so you can enjoy Ocean Drive Tab even more:

YourChords.com Guitar Chords and Tabs Archive is currently indexing over 240'000 songs from 21'000+ different artists. And new chords just keep on coming in, so you will surely never run out of them.

Show us your talent, perform Ocean Drive Tab!

Here you can post a video or audio performance. Tell me more ...
Where can we find your performance? Tell me more ...
Your comment:
Please, log in to post your performance.