Artists by letter: A B C D E F G H I J K L M N O P Q R S T U V W X Y Z 0-9

 
Line Of Sight Tab
-------------------------------------------------------------------------------
			     SONG NAME - Band Name
-------------------------------------------------------------------------------
Tabbed by: Josh
Email:

Tuning: Standard (EADGBe) 
Intro
e|---------------------------------------------------------|
B|---------------------------------------------------------|
G|---------------------------------------------------------|
D|---------------------------------4-3-1---1-----4-3-1-----|
A|-----4-3-1---1-----4-3-1-----1-1-------4---1-1-------4-1-|
E|-1-1-------4---1-1-------4-1-----------------------------|

Chorus
e|-------------------------------------------------------|
B|-------------------------------------------------------|
G|---3----------------------4-3-4-3-4-3--------6---6-----|
D|-2-3-2-3-5-3-5-3-5-5--2-2-4-3-4-3-4-3-2--2-2-6-6-6-6-4-|
A|-2-1-2-3-5-3-5-3-5-5--2-2-2-1-2-1-2-1-2--2-2-4-6-4-6-4-|
E|-0---0-1-3-1-3-1-3-3--0-0-------------0--0-0---4---4-2-|

Verses
e|-------------------------------------------------------------|
B|-------------------------------------------------------------|
G|-------------------------------------------------------------|
D|-----------------------------------14-------14-12-------12---|
A|-------14-------14-12--------12-15----12-15-------15-12-12---|
E|-12-15----12-15-------15-12-----------------------------10---|
pm .   .  .  .  .  .  .  .  .  .  .  .  .  .  .  .   .  .  . 
 
 
Washya - Line Of Sight Tab :: indexed at Ultimate Guitar.
Line Of Sight tabs @ 911Tabs

Quick tip, so you can enjoy Line Of Sight Tab even more:

After the registration (which takes just 10 seconds, remember?) you will be able to use your profile - your very own piece of YourChords.com.

Show us your talent, perform Line Of Sight Tab!

Here you can post a video or audio performance. Tell me more ...
Where can we find your performance? Tell me more ...
Your comment:
Please, log in to post your performance.