Artists by letter: A B C D E F G H I J K L M N O P Q R S T U V W X Y Z 0-9

 
Freshness Tab
-------------------------------------------------------------------------------
			     Freshness - Washya
-------------------------------------------------------------------------------
Tabbed by: Josh
Email:

Tuning: Standard
Strum Chords
Intro
e|-0-0-0-0-0-0-0-0-3-3-0-0-0-0-0-2~---|
B|-0-0-1-1-1-0-0-0-3-3-2-2-2-2-2-3~---|
G|-2-2-0-0-0-0-0-0-0-0-2-2-2-2-2-2~---|
D|-2-2-2-2-2-2-2-2-0-0-2-2-2-2-2-0~---|
A|-1-1-3-3-3-2-2-2-2-2-0-0-0-0-0-0~---|
E|-0-0-0-0-0-0-0-0-3-3-0-0-0-0-0-0~---|



Verse 1.
A,             C
Welcome to another day
C,             Em
When all your troubles fade away
A,             G
Find yourself again  
G,             Em 
It's what you always planned

Chorus

Am,                 C
The freshness of the earth
Am,                 C
Will never be forgotten
C,           A,          D
The wonders of the southern land
Am,                      G,
Will lend you a helping hand
A,    G
yeah yeah
G,           C,         A
freshness of the southern land

Verse 2.

Am,            Em
Everything is sweet
G,             A,
And everyone we meet

Em,            A,        G.
Is  wondered by the freshness of the earth

D,           G,           C
Dew moistens the soft green grass

Em,       A,         C,      D
Treading lightly as we pass



Chorus

Am,                 C
The freshness of the earth
Am,                 C
Will never be forgotten
C,           A,          D
The wonders of the southern land
Am,                      G,
Will lend you a helping hand
A,    G
yeah yeah
G,           C,         A
freshness of the southern land



Guitar Solo
e|----------------------------------------------------------0--|
B|-------------4---4---4--4-2-0---------------------------1----|
G|-----2-2-4-2---2---2----------4-2-0-------------------2------|
D|---2--------------------------------4-2-0-----------0--------|
A|-0----------------------------------------4-2-0---3----------|
E|------------------------------------------------1------------|
 
 
Washya - Freshness Tab :: indexed at Ultimate Guitar.
Freshness tabs @ 911Tabs

Quick tip, so you can enjoy Freshness Tab even more:

If you don't really know how to deal with "Absus4" chord and his equally confusing brothers, just put the mouse cursor over them and you will be shown a helpful chord diagram.

Show us your talent, perform Freshness Tab!

Here you can post a video or audio performance. Tell me more ...
Where can we find your performance? Tell me more ...
Your comment:
Please, log in to post your performance.