Artists by letter: A B C D E F G H I J K L M N O P Q R S T U V W X Y Z 0-9

 
Angle Of Acceptance Tab
This tab just gives you an idea of the rythm of this song
You have to listen to the song to play exactly like DT



Guitar 
     S S S S S S S S S S S S S S S S    S S S H        S S S S S  
E||----------------------------------|---------------------------|
B||----------------------------------|---------------------------|
G||----------------------------------|---------------------------|
D||----------------------------------|---------------------------|
A||----------------------------------|---------------------------|
D||--0-0-0-0---0-0---0-0-0-0-0-0---0-|--0-0-0----------0-0---0-0-|

E  S S S S S S S S S Q    S    S S. S S. S S S E  E  E  E   
------------------------------|------------------------------|
------------------------------|------------------------------|
------------------------------|------------------3--3--3--3--|
------------------------------|------------------1--1--1--1--|
------------------------------|------------------1--1--1--1--|
-----0-0-0-0-0-0---0-0--------|--0-0--0-0----0-0-1--1--1--1--|

E  E  S S H        S S    S S S E  S S S S S S S S S S S  
-------------------------|---------------------------------|
-------------------------|---------------------------------|
--3--L-------------------|---------------------------------|
--1--L-------------------|---------------------------------|
--1--L-------------------|---------------------------------|
--1--L--0-0----------0-0-|----0-0----0-0-0-0-0-0-0-0-0-0-0-|

NH  
  S H        S S S S S S S    S S S S S S S S S S S S E    E   
---------------------------|----------------------------------|
---------------------------|----------------------------------|
---------------------------|-----------------------------5--|
---------------------------|-----------------------------5--|
---------------------------|----------------------------------|
--0----------0-0-0-0---0-0-|----0-0-0-0-0-0---0-0-0-0---------|

E  E  S S S S S E  S S S S S    S S S S Q    S S S. S S. S S  
-------------------------------|-------------------------------|
-------------------------------|-------------------------------|
--L----------------------------|-------------------------------|
--L----------------------------|-------------------------------|
-------------------------------|-------------------------------|
--------0-0---0-0----0-0-0-0-0-|--0---0-0--------0-0--0-0----0-|

NH                       
  S S S S S S S S S E  E  S S S    E    S Q    S S S S S E  S S  
--------------------------------|-------------------------------|
--------------------------------|-------------------------------|
----3---3-L-3-L-3-L-3--L--------|-----7-----------------------|
----1-L-1-L-1-L-1-L-1--L--------|-----7-----------------------|
----1-L-1-L-1-L-1-L-1--L--------|-------------------------------|
--0-1-L-1-L-1-L-1-L-1--L--0-0---|--------------0-0---0-0----0-0-|

the drum begins 
  S S S S S S S S S S Q    E     S S S S S S S S S S S S S S S S  
------------------------------|----------------------------------|
------------------------------|----------------------------------|
------------------------------|----------------------------------|
------------------------------|----------------------------------|
------------------------------|----------------------------------|
--0-0-0-0-0-0-0-0-0-0---------|--0-0-0-0---0-0---0-0-0-0-0-0---0-|

S S S H        S S S S S    E  S S S S S S S S S Q    S  
---------------------------|------------------------------|
---------------------------|------------------------------|
---------------------------|------------------------------|
---------------------------|------------------------------|
---------------------------|------------------------------|
--0-0-0----------0-0---0-0-|-----0-0-0-0-0-0---0-0--------|

S S. S S. S S S S S S S E   Q        Q    H        Q     
------------------------------------|---------------------|
------------------------------------|---------------------|
------------------------------------|---------------------|
------------------1-1-1-1-Ls--7p----|--0----0--------L----|
------------------1-1-1-1-Ls--7p----|--0----0--------L----|
--0-0--0-0----0-0-1-1-1-1-Ls--7p----|--0----0--------L----|

bass + drums
  S S S S S E  S S S S S S S S S    S S S S H        Q                     
---------------------------------|------------------------|-------|-------|
---------------------------------|------------------------|-------|-------|
---------------------------------|------------------------|-------|-------|
---------------------------------|------------------------|-------|-------|
---------------------------------|------------------------|-------|-------|
--0-0---0-0----0-0-0-0-0-0-0-0-0-|--0-0-0-----------------|-------|-------|

-------|-------|-------|-------|-------|-------|-------|-------|-------|
-------|-------|-------|-------|-------|-------|-------|-------|-------|
-------|-------|-------|-------|-------|-------|-------|-------|-------|
-------|-------|-------|-------|-------|-------|-------|-------|-------|
-------|-------|-------|-------|-------|-------|-------|-------|-------|
-------|-------|-------|-------|-------|-------|-------|-------|-------|

S S S S S S S S S S S S S S S S    S S S H        S S S S S  
----------------------------------|---------------------------|
----------------------------------|---------------------------|
----------------------------------|---------------------------|
----------------------------------|---------------------------|
----------------------------------|---------------------------|
--0-0-0-0---0-0---0-0-0-0-0-0---0-|--0-0-0----------0-0---0-0-|

E  S S S S S S S S S Q    S    S S. S S. S S S S S S S E   Q      
------------------------------|------------------------------------|
------------------------------|------------------------------------|
------------------------------|------------------------------------|
------------------------------|------------------1-1-1-1-Ls--7p----|
------------------------------|------------------1-1-1-1-Ls--7p----|
-----0-0-0-0-0-0---0-0--------|--0-0--0-0----0-0-1-1-1-1-Ls--7p----|

Q    H        Q       S S S S S E  S S S S S S S S S  
---------------------|---------------------------------|
---------------------|---------------------------------|
---------------------|---------------------------------|
--0----0--------L----|---------------------------------|
--0----0--------L----|---------------------------------|
--0----0--------L----|--0-0---0-0----0-0-0-0-0-0-0-0-0-|

S S S S H        Q      
------------------------||
------------------------||
------------------------||
------------------------||
------------------------||
--0-0-0-----------------||


 
 
Dub Trio - Angle Of Acceptance Tab :: indexed at Ultimate Guitar.
Angle Of Acceptance tabs @ 911Tabs
People who played Dub Trio - Angle Of Acceptance Tab also played these songs by Dub Trio:
Respite Tab, One Man Tag Crew Chords, Screaming At The Sea Tab, Respite, Angle Of Acceptance, One Man Tag Crew

Quick tip, so you can enjoy Angle Of Acceptance Tab even more:

Try out the AutoScroller option ... It scrolls the page for you, so you can totally focus on nailing that solo. You can choose among different speeds using your mouse or your keyboard (keys 0, 1, 2 and 3).

Show us your talent, perform Angle Of Acceptance Tab!

Here you can post a video or audio performance. Tell me more ...
Where can we find your performance? Tell me more ...
Your comment:
Please, log in to post your performance.