Artists by letter: A B C D E F G H I J K L M N O P Q R S T U V W X Y Z 0-9

 
Nenia Tab
/---------------------------------------------------------------------------/
/    The following is the author's own interpretation of the song, to be    /
/                     used for private use and studying                     /
/---------------------------------------------------------------------------/

DISMEMBER - NENIA           
                      From the Album MASSIVE KILLING CAPACITY             
                           Copyright 1995 NUCLEAR BLAST
  
                           Version 1.1 - September 2010
                                   
Transcription Done By: Umberto Cassinari
Edited and corrected By: Rene Chrestensen

For Questions, Comments, Corrections, or Newest Version;  
          please contact Umberto at [email protected]
 
Check Out Death Warp, With More Transcriptions On It:
 http://www.wam.umd.edu/~ekubica

.  - palm mute           /  - slide up to        b     - bend the note  
\  - slide down to       ~  - vibrato           (x)    - to this one and then                
"  - tremelo picking     () - ghost note         r     - release the note

Dismember - Nenia

Standard "lowered" tuning (2 steps down)

Listen for the timing.. there are a lot of tempo changes in here 
but it should be more or less ok however..

Well, I decided to transcribe this song cause for five long years I haven't
found anyone that could (or would) do it for me.. I think it's one of the most 
beautiful slow songs of the entire heavy metal genre and it strongly "deserves" 
to be listened to, to be transcribed and played.

Riff A (Intro)
RENE
   C5             Bb5             Ab5              G5       
|-------------------------------------------------------------------------|
|-------------------------------------------------------------------------|
|--9---------------7---------------5---------------4----------------------|     
|--9---------------7---------------5---------------4----------------------|
|--7---------------5---------------3---------------2------------/10-9-10--| 
|--0----------------------------------------------------------------------|
JJ
|-------------------------------------------------------------------------|
|-------------------------------------------------------------------------|
|------------------7---------------5---------------4--------------4-2-4---|
|--2---------------7---------------5---------------4------------/---------|
|--2---------------5---------------3---------------2----------------------|
|--0---------------5---------------3---------------2----------------------|

Well.. this song is doubled by the 2nd GTR in almost all its parts..

The C5 chord is probably doubled by a low C5, the Bb5 by a high F5,
the Ab5 by a high Eb5 and the G5 with a high D5..

The 10-9-10 melody is probably doubled playing a 5th upper, while the 9-7-9 becomes
a 9-7-10 with the last note on the F string I put between those ..

For the rest of the song I'm going to tab the main guitar riffs, transcribing the 2nd one 
only when necessary (the work would take plenty of time, too much I think..)

Riff B (Main)

(C5)             (Bb5)              (Ab5)                 (G5) 
|---------------------------------------------------------------------------------|
|------------------------------------------------------------trill----------------|
|---------------------------------------------------------------------------------|
|-------------------------------------------12--10--12-10-9109109109..------------|
|--7---10---10-12-10-9---12--10--10-12-10-------------------------------/10-9-10--|
|---------------------------------------------------------------------------------|

Repeat Riff B doubling the last three notes.. (9-7-9 and 9-7- as before)

Riff C (First Solo)                                                            
                                                              1___________ 2____________
   C5             Bb5             Ab5              G5          |            |
|-------------------------------------------------------------------------|
|-------------------------------------------------------------------------|
|--9-------9-------7-------7-------5-------5-------4----------------------|     
|--9-------9-------7-------7-------5-------5-------4----------------------|
|--7-------7-------5-------5-------3-------3-------2------------/10-9-10--| |--/10-9-7\--|
|--0-------0--------------------------------------------------------------|

Repeat Riff C with little variation in the melody

First great solo (1:04)
(listen for timing the bends)

|-----------------------------------------------------------------------------------|
|-----------------------------------------------------------------------------------|
|--------11-12-12p11--11-11b(12)r11----12-14b(16)r14-14b(16)r14-14b(16)r14----------|   
|--14---------------14--------------14----------------------------------------------|  
|-----------------------------------------------------------------------------------|  
|-----------------------------------------------------------------------------------|
                (just play a little with these bends..)---->|____________________|
|-----------------------------------------------------------------------------------|
|-----------------------------------------12-15b(17----)r15-15b(17)r15-(17)r\12-----|
|--14-12-14-12h14p12\111211h12p11---------------------------------------------------|   
|--------------------------------14--(14)-------------------------------------------|
|-----------------------------------------------------------------------------------| 
|-----------------------------------------------------------------------------------|

|-----/15-14-12---14p12---12-14-14b(15)r14-12-14b(15)r14-14b(15)r14-----------------|
|--12------------------16-----------------------------------------------------------|
|-----------------------------------------------------------------------------------|
|-----------------------------------------------------------------------------------|
|-----------------------------------------------------------------------------------|
|-----------------------------------------------------------------------------------|
play trilling these------->|____________________________|
|--------------------------------------------------------------------|
|--------------------------------------------------------------------|
|-----------11-12----11-12-14p12h14..16p14h16..17p16h17..17b(19)r17--|
|--14----14----------------------------------------------------------|
|--------------------------------------------------------------------|
|--------------------------------------------------------------------|

|------------------------------------------------------------------------------|
|------------------------------------------------------------------------------|
|--17-16h17p16\14\12-14-12h14p12\11-12-11h12p11----11--------------------------|
|-----------------------------------------------14----14~\-(12)--/10~--9h10p9--|
|------------------------------------------------------------------------------|
|------------------------------------------------------------------------------|

|-------------------------------------------------------------------------|
|-------------------------------------------------------------------------|
|-----------14b(16)r14-12-14b(16)r14-14b(16)r14-11~--11h12p11-------------|
|-------------------------------------------------------------14-13-14----|
|--12-10\-----------------------------------------------------------------|
|-------------------------------------------------------------------------|

|-------------------------------------------------------------------------|
|-----------------------------/17~~~~17\----------------------------------|
|--11b(12)r11-11----------------------------------------------------------| 
|----------------13--14~~-------------------------------------------------|
|-------------------------------------------------------------------------|
|-------------------------------------------------------------------------|

Riff D (Variation of Riff B)

|-------------------------------------------------------------|
|-------------------------------------------------------------|
|-------------------------------------------------------------|     
|-------------------------------------------------------------|
|--7----7----7---10----10----12-10-9----9----9----9-----------| 
|----00---00---0----00----00---------00---00---00-------------|
     ..   ..   .     . .     . .         ..   ..   .

|--------------------------------------------------|
|--------------------------------------------------|
|--------------------------------------------------|     
|--------------------------------------------------|
|--12----10----10-12-10----10----10----10----------| 
|-----00----00----------00----00----00-------------|
       . .     . .           . .     . .     .

|-------------------------------------------|
|-------------------------------------------|
|-------------------------------------------|     
|--12---10----12-10-9----9----9---9-7-9-GII-|
|---------------------------------10910-GI--| 
|-----00---00---------00---00---------------|

Riff E 
                         
|-------------------------------------|-----------------------------------------|
|-------------------------------------|-----------------------------------------|
|-------------------------------------|-----------------------------------------|         
|--2----------------------------------|--2----------------12--10--9-------------|  
|--2----7--9--10-------12-10-9--------|--2----7--9--10---------------12--10--9--|Git I
|--0--------------8-------------------|--0--------------------------------------|

|---------------------------------------|---------------------------------------|
|---------------------------------------|---------------------------------------|
|---------------------5-4---------------|------------------10--9--7-------------|         
|--2----5--7--9------------7------------|--2----5--7--9-------------10--9--7----|  
|--2-------------7----------------------|--2------------------------------------|Git II
|--0------------------------------------|--0------------------------------------|





Okay, now back to Riff D

Hear the song to include this little variation (drums going crazy) of Riff D (last scheme)

(G5) chords
|----------------------------------------------------------------------|
|----------------------------------------------------------------------|
|----------------------------------------------------------------------|     
|--12----10----12-10----9-9-9-9-9-9-9----------------------------------|
|-----------------------9-9-9-9-9-9---------/10-9-10\------------------| 
|-----00----00----------7-7-7-7-7-7------------------------------------|
       . .     . .      . . . . . .         (Doubled as usual)

Repeat Riff E with variation.. it's just a bend..

Then

|----------------------------------------------------|
|----------------------------------------------------|
|----------------------------------------------------|  
|---------------Bass interlude-----------------------|
|-7~~------------------------------------------------| 
|----------------------------------------------------|

Little effects on bass interlude: (hold bends)

|----------------------14b(15)r14-----------------------------------------|
|--15b(17)r15-------------------------------------------------------------|
|-------------------------------------------------------------------------| 
|------------------------------------------------/12b(14)r12--------------|
|-------------------------------------------------------------------------|
|-------------------------------------------------------------------------|

Riff F (slide notes)
  
|---------------------|----------------------------------------------------|
|---------------------|----------------------------------------------------|
|---------------------|----------------------------------------------------| 
|-2-2-2-2-2-2---------|----------------------------------------------------|
|-2-2-2-2-2-2---------|--7------7----9------9----10-------10-12-10-9-------| (four times)
|-0-0-0-0-0-0---------|-------7-----------9------------10------------------|
  . . . . . .

Riff F (Guitar 2)

|----------------|---------------------------------------------------------|
|----------------|---------------------------------------------------------|
|----------------|---------------------------------------------------------| 
|--/10-9h10p9\7--|-5------5----7------7----9------9-10-9-7-----------------|
|----------------|------5-----------7-----------9--------------------------| (two times)
|----------------|---------------------------------------------------------|

Ok.. when Gtr2 enters both 1 & 2 trill last notes. Then, passing to Riff G
they trill 2 times the same notes.

Riff G

|----------------------------------|
|----------------------------------|
|----------7----7\-----------------| 
|--2----9--7----7\-5-\4\2--7-\5\4--|
|--2----7--5----5\-5-\4\2--7-\5\4--| (four times) 
|--0----0----------3-\2\0--5-\3\2--|
        .

Solo on Bass Interlude (same bass line) (3:43)

|--------------------------------------------------------------------|
|--------------------------------------------------------/15--13-12--|
|----------------------------------------------/12--11-9-------------| 
|--------9-12--10-12-10-9h10p9----9----------------------------------|
|--7--10-----------------------12----12-10---------------------------|
|--------------------------------------------------------------------|
       .
|--------------------------------------------------------------------|
|--12/13-12h13p12----12----------------------------------------------|
|-----------------14----14-12-----------14---------------------------| 
|--------------------------------14--14-------12--10-9-10--9h10p9\7--|
|--------------------------------------------------------------------|
|--------------------------------------------------------------------|

|---------------------------------|
|---------------------------------|
|---------------------------------| 
|----------9~------10-9h10p9-(7)--|
|--10~---7------10----------------|
|---------------------------------|

Riff H (Little one)

|---------------|
|---------------|
|---------------| 
|--7--7\5\44/5--|
|--7--7\5\44/5--|
|--5--5\3\22/3--|
          ..

Second Great Solo (w/Riff G) (4:05)

|--------------------------------------------------------------------------|
|--------------------------------------------------------------------------|
|--/12~----11b(12)r(11)-----------11-12-14~-12-11----------11-----11-12----| 
|----------------------9~----9/14------------------14~--14-----14----------|
|--------------------------------------------------------------------------|
|--------------------------------------------------------------------------|

|------------------------------------------------15-14h15p14\12------------|
|---------------------------------------------15---------------15b(17)r15--|
|-----14b(16)r14b(16)r14-14-12-11h12p11----12------------------------------| 
|--14-----------------------------------14---------------------------------|
|--------------------------------------------------------------------------|
|--------------------------------------------------------------------------|
play trilling|__________these___________|
|--------------------------------------------------------------------------|
|--13-12-13----------------------------------------------------------------|
|-----------14h16p14..12h14p12..11h12p11..-14b(16)r14-14-11h12p11----------| 
|-----------------------------------------------------------------14~------|
|--------------------------------------------------------------------------|
|--------------------------------------------------------------------------|
 (very fast release)    
|-----------------------------------------------------------------------------------|
|-----------------------------------------------------------------------------------|
|--11-12-14-14b(16)-14-12-11-12-/12-11-9--------------------------------------------| 
|----------------------------------------12-10-9------------------------------------|
|------------------------------------------------12b(14)r12-10h12p10-10-9-10-7~-----|
|-----------------------------------------------------------------------------------|

Not completely sure about these last 5 seconds cause I'm going completely crazy...

Check Out Death Warp, With More Transcriptions On It:
 http://www.wam.umd.edu/~ekubica
 
 
Dismember - Nenia Tab :: indexed at Ultimate Guitar.
Nenia tabs @ 911Tabs

Quick tip, so you can enjoy Nenia Tab even more:

If you don't really know how to deal with "Absus4" chord and his equally confusing brothers, just put the mouse cursor over them and you will be shown a helpful chord diagram.

Show us your talent, perform Nenia Tab!

Here you can post a video or audio performance. Tell me more ...
Where can we find your performance? Tell me more ...
Your comment:
Please, log in to post your performance.