Artists by letter: A B C D E F G H I J K L M N O P Q R S T U V W X Y Z 0-9

 
Kidnap My Heart Tab
Kidnap My Heart

Tabbed by:Glen G. Ore

Email:[email protected]

this is how I play this song on acoustic

Tuning:Drop D

Intro

eb|-----------------------------|
Bb|-------------2---------------|
Gb|-7-----4-----2---------------| 2x
Db|-7-----4-----2-----5---------|
Ab|-5-----2-----------5---------|
Eb|-------------------5---------|

Verse:
              mute
eb|-----------------------------|
Bb|-------------2---------------|
Gb|-7-----4-----2---------------| 4x
Db|-7-----4-----2-----5---------|
Ab|-5-----2-----------5---------|
Eb|-------------------5---------|

Pre-Chorus:
                   mute
eb|-----------------------------|-------------------------|
Bb|--------2--------------------|---------2---------------|
Gb|-4------2-------------7------|--4------2---------------|
Db|-4------2------5------7------|--4------2------5--------|(pause to the last chords G)
Ab|-2-------------5------5------|--2-------------5--------|
Eb|---------------5-------------|----------------5--------|

Chorus:

eb|------------------------------|
Bb|--------2-----4---------------|
Gb|--7-----2-----4---------------| 
Db|--7-----2-----2-----5---------|
Ab|--5-----------------5---------|
Eb|--------------------5---------|

eb|------------------------------|
Bb|-------2-----5----------------|
Gb|-7-----2-----5----------------| (pause to the last chords A)
Db|-7-----2-----3-----5------6---|
Ab|-5-----------------5------6---|
Eb|-------------------5------6---|

[Repeat intro]
[Repeat verse]
[Repeat chorus]

BRIDGE:

eb|-----------------|-------------|
Bb|-----------------|-------------|
Gb|-4---5---7-------|-------------|
Db|-4---5---7-------|--2---4---5--|
Ab|-2---3---5-------|--2---4---5--|
Eb|-----------------|--2---4---5--|

[Repeat chorus]

 
 
Click Five - Kidnap My Heart Tab :: indexed at Ultimate Guitar.
Kidnap My Heart tabs @ 911Tabs
People who played Click Five - Kidnap My Heart Tab also played these songs by Click Five:
Happy Birthday Tab, Kidnap My Heart Chords

Quick tip, so you can enjoy Kidnap My Heart Tab even more:

If you don't really know how to deal with "Absus4" chord and his equally confusing brothers, just put the mouse cursor over them and you will be shown a helpful chord diagram.

Show us your talent, perform Kidnap My Heart Tab!

Here you can post a video or audio performance. Tell me more ...
Where can we find your performance? Tell me more ...
Your comment:
Please, log in to post your performance.