Artists by letter: A B C D E F G H I J K L M N O P Q R S T U V W X Y Z 0-9

 
Stoic Tab
CAVE IN - STOIC

Pretty sure cave in play in Eb, but I've tabbed it in drop D anyway.

( ) = Guitar one 
BU = bend down

E|---------------0-|
    B|---------------0-|
GTR G|-----------------| x4    
 1  D|-2-------9--0--8-|              
    A|-2-------9--0--8-|
    D|-2-------9--0--8-|
       PM

E|--- 1,4 ---|------------19-19-19-19-|-----------24-24-24-24-|
    B|-----------|------------18-18-18-18-|-----------23-23-23-23-|
GTR G|-----16-15-|-----16-15/-------------|-----16-15/------------|    
 2  D|-(2)-------|-(2)--------------------|-(2)-------------------|              
    A|-(2)-------|-(2)--------------------|-(2)-------------------|
    D|-(2)-------|-(2)------- 2 ----------|-(2)--------- 3 -------|
       PM

E|----|
    B|----|
GTR G|----|    
1+2 D|-2--|              
    A|-2--|
    D|-2--|
       PM

E|----- x3 -----|----- x1 ------|
    B|--------------|---------------|
GTR G|-9------------|---------------| x2    
1+2 D|-9------------|---------------|              
    A|-7-----3------|-2------1------|
    D|-------5------|-4------3------|

- - - - - - - - - - - - - - - - - - - - - -

E|-----------------------------|
    B|-----------------------------|
GTR G|---9\8---8\7---7\6-----5\4-5-|    
1+2 D|-----------------------------|              
    A|-0-7\6-0-6\5-0-5\4-0-0-3-3-3-|
    D|-0-----0-----0-----0-0-------|
      PM    PM    PM    PMPM

E|------------------------------------|
    B|------------------------------------|
GTR G|---9\8---8\7-6/7-6----5----4----3-3-|    
1+2 D|------------------------------------|              
    A|-0-7\6-0-6\5-4/5-4-00-3-00-2-00-1-1-|
    D|-0-----0-----------00---00---00-----|
      PM    PM           PM   PM   PM

E|------------------------------------|
    B|------------------------------------|
GTR G|---9\8---8\7------------------------|    
1+2 D|------------------------------------|              
    A|-0-7\6-0-6\5--9---8---4---8---4---7-|
    D|-0-----0------11--10--6---10--6---9-|
      PM    PM

Repeat last 3 bars
- - - - - - - - - - - - - - - - - - - -  -

E|----------------------------------|
    B|----------------------------------|
GTR G|-------3BD-3BD--6h7h8h9p8p7p6-3p0-|    
1+2 D|-2---0----------------------------|              
    A|-2---0----------------------------|
    D|-2---0----------------------------|

E|----------------|
    B|----------------|
GTR G|-----3-----3----|    
1+2 D|-----2-----2----|              
    A|-2-2-2-2-2-2-2--|
    D|-2-2-2-2-2-2-2--|
       PM PM PM PM PM

E|------------------------------|
    B|------------------------------|
GTR G|-------3BD-3BD--6---7---9---7-|    
1+2 D|-2---0------------------------|              
    A|-2---0----------4---5---7---5-|
    D|-2---0------------------------|

E|----------------------------------|
    B|----------------------------------|
GTR G|-------3BD-3BD--6h7h8h9p8p7p6-3p0-| 1,3    
1+2 D|-2---0----------------------------|              
    A|-2---0----------------------------|
    D|-2---0----------------------------|

E|----------------|
    B|----------------|
GTR G|----------------| 2    
1+2 D|-----2-----2----|              
    A|-2-2-2-2-2-2-2--|
    D|-2-2-2-2-2-2-2--|
       PM PM PM PM PM

E|---------------0------------|
    B|---------------0------------|
GTR G|---------------3-(let ring)-|    
1+2 D|-----3-----3---2------------|              
    A|-2-2-2-2-2-2----------------|
    D|-2-2-2-2-2-2----------------|
       PM PM PM PM

E|-------|---------------------------|
    B|---0---|---------------------------|
GTR G|-3---4-|-4-4-4-4-4-4-4-4-4-3-3-3-3-|    
1+2 D|-------|---------------------------|              
    A|-- x5 -|---------------------------|
    D|-------|---------------------------|

E|-----------------------------------|
    B|-----------------------------------|
GTR G|-----------------------------------|    
1+2 D|-----------------------------------|              
    A|-0----0-0-1----1-1-1-3-4-3----2----|
    D|-2----2-2-3----3-3-3-5-----5--4----|
           PM PM     PM PM   PM PM

E|-------------------------------------|
    B|-------------------------------------|
GTR G|-------------------------------------|    
 1  D|-------------------------------------|              
    A|-11111111-44444444-33333333-66666666-|
    D|-------------------------------------|

E|-------------------------------------|
    B|-------------------------------------|
GTR G|-------------------------------------|    
 2  D|-22222222-55555555-44444444-77777777-|              
    A|-------------------------------------|
    D|-------------------------------------|

E|-----------------------------|
    B|-----------------------------|
GTR G|--------6--3---------6--3--5-|    
1+2 D|-4-3-2--------4-3-2----------|              
    A|-4-3-2--4--1--4-3-2--4--1--3-|
    D|-4-3-2--------4-3-2----------|
       PM PM        PM PM

E|-----------------------------------|
    B|-----------------------------------|
GTR G|-----------------------------------|    
1+2 D|-----------------------------------|              
    A|-0----0-0-1----1-1-1-3-4-3----2----|
    D|-2----2-2-3----3-3-3-5-----5--4----|
           PM PM     PM PM   PM PM

E|-------------------------------------|
    B|-------------------------------------|
GTR G|-33333333-66666666-55555555-22222222-|    
 1  D|-------------------------------------|              
    A|-------------------------------------|
    D|-------------------------------------|

E|-------------------------------------|
    B|-------------------------------------|
GTR G|-------------------------------------|    
 2  D|-22222222-55555555-44444444-11111111-|              
    A|-------------------------------------|
    D|-------------------------------------|

E|-----------------------------|
    B|-----------------------------|
GTR G|--------6--3---------6--3--5-|    
1+2 D|-4-3-2--------4-3-2----------|              
    A|-4-3-2--4--1--4-3-2--4--1--3-|
    D|-4-3-2--------4-3-2----------|
       PM PM        PM PM

E|-----------------------------------|
    B|-----------------------------------|
GTR G|-----------------------------------|    
1+2 D|-----------------------------------|              
    A|-0----0-0-1----1-1-1-3-4-3----2----|
    D|-2----2-2-3----3-3-3-5-----5--4----|
           PM PM     PM PM   PM PM

E|-------------------------------------|
    B|-------------------------------------|
GTR G|-------------------------------------|    
 1  D|-------------------------------------|              
    A|-11111111-44444444-33333333-66666666-|
    D|-------------------------------------|

E|-------------------------------------|
    B|-------------------------------------|
GTR G|-------------------------------------|    
 2  D|-22222222-55555555-44444444-77777777-|              
    A|-------------------------------------|
    D|-------------------------------------|

E|-----------------------------|
    B|-----------------------------|
GTR G|--------6--3---------6--3--5-|    
1+2 D|-4-3-2--------4-3-2----------|              
    A|-4-3-2--4--1--4-3-2--4--1--3-|
    D|-4-3-2--------4-3-2----------|
       PM PM        PM PM

E|-----------------------------------|
    B|-----------------------------------|
GTR G|-----------------------------------|    
1+2 D|-----------------------------------|              
    A|-0----0-0-1----1-1-1-3-4-3----2----|
    D|-2----2-2-3----3-3-3-5-----5--4----|
           PM PM     PM PM   PM PM

E|-------------------------------------|
    B|-------------------------------------|
GTR G|-66666666-99999999-88888888-55555555-|    
 1  D|-------------------------------------|              
    A|-------------------------------------|
    D|-------------------------------------|

E|-------------------------------------|
    B|-------------------------------------|
GTR G|-------------------------------------|    
 2  D|-55555555-88888888-77777777-44444444-|              
    A|-------------------------------------|
    D|-------------------------------------|

E|---------------------|
    B|---------------------|
GTR G|--------6-5-6-5-6----|    
1+2 D|-4-3-2---------------|              
    A|-4-3-2--4-3-4-3-4----|
    D|-4-3-2---------------|
       PM PM

E|-----------------------------|
    B|-----------------------------|
GTR G|---9\8---8\7---7\6-----5\4-5-|    
1+2 D|-----------------------------|              
    A|-0-7\6-0-6\5-0-5\4-0-0-3-3-3-|
    D|-0-----0-----0-----0-0-------|
      PM    PM    PM    PMPM

E|------------------------------------|
    B|------------------------------------|
GTR G|---9\8---8\7-6/7-6----5----4----3-3-|    
1+2 D|------------------------------------|              
    A|-0-7\6-0-6\5-4/5-4-00-3-00-2-00-1-1-|
    D|-0-----0-----------00---00---00-----|
      PM    PM           PM   PM   PM

E|------------------------------------|
    B|------------------------------------|
GTR G|---9\8---8\7------------------------|    
1+2 D|------------------------------------|              
    A|-0-7\6-0-6\5--9---8---4---8---4---7-|
    D|-0-----0------11--10--6---10--6---9-|
      PM    PM

E|-----------------------------|
    B|-----------------------------|
GTR G|---9\8---8\7---7\6-----5\4-5-|    
 1  D|-----------------------------|              
    A|-0-7\6-0-6\5-0-5\4-0-0-3-3-3-|
    D|-0-----0-----0-----0-0-------|
      PM    PM    PM    PMPM

E|-----------------------------|
    B|-----------------------------|
GTR G|---9\8---8\7---7\6-----/15---|    
 2  D|-----------------------------|              
    A|-0-7\6-0-6\5-0-5\4-0-0-------|
    D|-0-----0-----0-----0-0-------|
      PM    PM    PM    PMPM

E|------------------------------------|
    B|------------------------------------|
GTR G|---9\8---8\7-6/7-6----5----4----3-3-|    
1+2 D|------------------------------------|              
    A|-0-7\6-0-6\5-4/5-4-00-3-00-2-00-1-1-|
    D|-0-----0-----------00---00---00-----|
      PM    PM           PM   PM   PM

E|----------------|
    B|-7--------------|
GTR G|-11-------------|    
1+2 D|-0---(let ring)-|              
    A|-9--------------|
    D|----------------|

E|---- x4 -----|-------------------------0--|
    B|-------------|-------------------------0--|
GTR G|-12-12-12-12-|-12-12-12-12-11--9---11--12-|    
1+2 D|-11-11-11-11-|-11-11-11-11-11--11--11--0--|              
    A|-11-11-11-11-|-11-11-11-11-11--11--11-----|
    D|-11-11-11-11-|-11-11-11-11-11--11--11-----|

E|---------------------------|
    B|-----------------7--8------|
GTR G|-14-14-14-14-12------------|    
1+2 D|-12-12-12-12-12------------|              
    A|-12-12-12-12-12------------|
    D|-12-12-12-12-12------------|

E|-------------------------------------------------------|
    B|-------------------------------------------------------|
GTR G|-14p12----11-------------14p12-------------14p12---/19-|    
 1  D|-------------------------------------------------------|              
    A|-------------------------------------------------------|
    D|-------------------------------------------------------|

E|-------------------------------------------------------|
    B|-------------------------------------------------------|
GTR G|-------------11h12p9-14p12------11h12p9-12p11------/19-|    
 2  D|-------------------------------------------------------|              
    A|-------------------------------------------------------|
    D|-------------------------------------------------------|

END

Email any corrections / suggestions to [email protected]
 
 
Cave In - Stoic Tab :: indexed at Ultimate Guitar.
Stoic tabs @ 911Tabs
People who played Cave In - Stoic Tab also played these songs by Cave In:
Anchor Tab, Anchor Tab, New Moon Tab, Rubber And Glue Tab, Come Into Your Own Tab, Inspire Tab

Quick tip, so you can enjoy Stoic Tab even more:

If you spend just 10 seconds to register, you will be able to comment on all the chords and tabs and rate them. You will as well be able to comment on videos of your fellow guitarists and give them ratings from 1 to 5 ... And - of course - you can share your own videos with them and see what they think of you. :)
Click here to join us!

Show us your talent, perform Stoic Tab!

Here you can post a video or audio performance. Tell me more ...
Where can we find your performance? Tell me more ...
Your comment:
Please, log in to post your performance.