Artists by letter: A B C D E F G H I J K L M N O P Q R S T U V W X Y Z 0-9

 
Safer To Hate Her Chords
Hey guys :] this is my very first tab. I was annoyed that there are no tabs or chords 
this song, so i decided to transcribe it myself. Please correct me if there are mistakes :)
Thank you to teamjonas for the intro

--------------------------------------------------------------------------
Tuning: Standard EADGBe

Intro:

e|--------------------------------------------------------------|
B|-----------------------------------------------------8--7-----|
G|-----------------------------------------------------------7--|
D|--2--2--5--4-----0--0--4--5--7--0--0--7--5--4--5--5-----------|
A|--2--2--------5--0--0-----------0--0-----------5--5-----------|
E|--------------------------------------------------------------|

e|--------------------------------------------------------------|
B|-----------7--8---------8--7----------------------------------|
G|--------7---------------------7-------------------7-7-7-7-----|
D|--0--0------------0--0------------2--2--5--4--0---7-7-7-7-----|
A|--0--0------------0--0------------2--2------------5-5-5-5-----|
E|--------------------------------------------------------------|

e|--------------------------------------------------------------|
B|--------------------------------------------------------------|
G|--1414141414141414-12121212-11111111-99-99-9-99-99-1111-------|
D|--x-x-x-x-x-x-x-x--x-x-x-x--x-x-x-x--xx-xx-x-xx-xx-xxxx-------|
A|--1212121212121212-10101010-9-9-9-9--77-77-7-77-77-9999-------|
E|--------------------------------------------------------------|

e|--------------------------------------------------------------|
B|--------------------------------------------------------------|
G|--1414141414141414-12121212-11111111-99-99-9-99-99-1111-7-----|
D|--x-x-x-x-x-x-x-x--x-x-x-x---x-x-x-x-xx-xx-x-xx-xx-x-x--x-----|
A|--1212121212121212-10101010--9-9-9-9-77-77-7-77-77-9-9--5-----|
E|--------------------------------------------------------------|

Verse:

A, D, F#m, E

A                       D
Too much, too much is never enough
                         F#m
I had you and I gave you up.
                      E
No idea where my mind was for months
       A                            D
I woke up, I cashed in on all of my luck,
                               F#m
walked hand and hand with your trust.
                             E
And everybody was kissing on fire,
and we all got burnt.

Chorus:

D         F#
It'd be safer, to hate her,
        G
than to love her and to lose her.
        D        F#           G
It'd be safer to hate her all around.

Verse 2:

A
Caught you having a laugh,
                          D
did you catch me have the last?
                                F#m
I've been smiling like this for days,
                    E
just to make up for my mistakes.
       A                      D
In the dark, I watch everyone disappear,
                                 F#
and I am beginning to let myself down.
                               E
I am pushing everyone that was in, out.

Chorus 2:

D         F#
It'd be safer, to hate her,
        G
than to love her and to lose her.
        D        F#           G
It'd be safer to hate her all around.
           D               F#
And nobody knows what it's like
            G
to live and die on the inside.
       D               F#
Nobody knows what it's like
      G
to be one of a kind.

Bridge:

e-|-----------------------------|
B-|-----------------------------|
G-|-----------------------------|
D-|-5-5-5--9-9-9--5-5-5-9-5-4-2-|
A-|-5-5-5--9-9-9--5-5-5-9-5-4-2-|
E-|-3-3-3--7-7-7--3-3-3-7-3-2-0-|

e-|----------------------------------------|
B-|-------15-------15--------15------------|
G-|-11-12----11-12-----11-12-----12-11-9-7-|
D-|----------------------------------------|
A-|----------------------------------------|
E-|----------------------------------------|

E (palm muted)   G, B, A, 
B
When we die, do we feel alive? (x2)

e-|------------------------------------|
B-|------------------------------------|
G-|------------------------------------|
D-|-555-555--999-999--77-77---77-77-99-|
A-|-555-555--999-999--77-77---77-77-99-|
E-|-333-333--777-777--55-55---55-55-77-|



Outro:
Same as Intro
 
 
You Me At Six - Safer To Hate Her Chords :: indexed at Ultimate Guitar.
Safer To Hate Her tabs @ 911Tabs

Quick tip, so you can enjoy Safer To Hate Her Chords even more:

YourChords.com Guitar Chords and Tabs Archive is currently indexing over 240'000 songs from 21'000+ different artists. And new chords just keep on coming in, so you will surely never run out of them.

Show us your talent, perform Safer To Hate Her Chords!

Here you can post a video or audio performance. Tell me more ...
Where can we find your performance? Tell me more ...
Your comment:
Please, log in to post your performance.