Artists by letter: A B C D E F G H I J K L M N O P Q R S T U V W X Y Z 0-9

 
Nothing Ive Ever Known Tab
Bryan Adams - Nothing i've ever known (Instrumental)
(form Spirit: Stallion of the Cimarron)
E||-----------------2--4--|--5--------------5----|--4--------------4----|--2--------------0-----|
B||-----------------------|------------2---------|------------2---------|------------2------3---|
G||-----------------------|-------2--------------|-------2--------------|-------2---------------|
D||-----------------------|----------------------|--2-------------------|--0--------------------|
A||-----------------------|----------------------|----------------------|-----------------------|
E||-----------------------|--2-------------------|----------------------|-----------------------|

A                          Bm                     Bm/A                  E
--0-----------------------|----------------------|---------------------|----------------------|
--------------------0--2--|--3--------------3----|--3------------------|--0-------------------|
------------2----2--------|------------4---------|------------4--------|-----------------1----|
-------2------------------|-------4--------------|-------4-------------|------------2---------|
--0-----------------------|--2-------------------|--0------------------|-------2--------------|
--------------------------|----------------------|---------------------|--0-------------------|

E                                       A                      Bm
-------------------|-------------------|----------------------|----------------------|
--0----------------|-------------------|--2--------------2----|--3--------------3----|
-------------------|-------------------|------------2---------|------------4---------|
-------------------|-------------------|-------2--------------|-------4--------------|
-------------------|-------------------|--0-------------------|--2-------------------|
--0----------------|-------------------|----------------------|----------------------|

A                      A                        Bm                     Bm/A
--0-------------------|--0---------------------|----------------------|---------------------|
-----------------2----|------------------0--2--|--3--------------3----|--3------------------|
------------2---------|---------------2--------|------------4---------|------------4--------|
-------2--------------|------------------------|-------4--------------|-------4-------------|
--0-------------------|--0---------------------|--2-------------------|--0------------------|
----------------------|------------------------|----------------------|---------------------|

E                      E                   D                      E
----------------------|-------------------|--2--------------2----|----------------------0-----|
--0-------------------|-------------------|----------------------|--0----------------0-----3--|
-----------------1----|--1----------------|------------2---------|----------------------------|
------------2---------|-------------------|-------0--------------|------------2---------------|
-------2--------------|-------------------|--0-------------------|-------2--------------------|
--0-------------------|--0----------------|----------------------|--0-------------------------|

C#m                    A                          Bm                        Bm
----------------------|--------------------------|-------------------------|---------------------|
--5--------------5----|--2-----------------0--2--|--3--------------3p0-----|--3--------------5p3-|
------------6---------|------------2----2--------|------------4------------|------------4--------|
-------6--------------|-------2------------------|-------4-----------------|-------4-------------|
--4-------------------|--0-----------------------|--2----------------------|--2------------------|
----------------------|--------------------------|-------------------------|---------------------|

A                                                                 E
--0-------------------|-------------------|----------------------|------------------0-----|
-----------------2----|--L----------------|-----------------0----|--0------------0-----3--|
------------2---------|-------------------|--2---------2---------|------------------------|
-------2--------------|-------------------|-------0--------------|------------------------|
--0-------------------|-------------------|--0-------------------|------------------------|
----------------------|-------------------|----------------------|--0---------------------|

C#m                    A                        E                      E
----------------------|------------------------|----------------------|------------------------|
--5--------------5----|------------------0--2--|--0-------------------|---------------------0--|
------------6---------|--2------------2--------|-----------------1----|--1------------1--2-----|
-------6--------------|------------------------|------------2---------|------------------------|
--4-------------------|--0---------------------|-------2--------------|------------------------|
----------------------|------------------------|--0-------------------|--0---------------------|

C#m
-------------------|--------------------------|--------------------------|
-------------------|--------------------5--4--|--5-----------------5--4--|
--2----------------|--------------------------|------------6-------------|
-------------------|-----------------6--------|-------6---------6--------|
-------------------|--------------------------|--4-----------------------|
--0----------------|--------------------------|--------------------------|

E
--------------------------|----------------------|------------------------|
--5-----------------5--4--|--5---------5---------|--9---------------9-----|
------------6-------------|-----------------4----|---------------------9--|
-------6---------6--------|-------6--------------|---------------9--------|
--4-----------------------|--4-------------------|--7---------------------|
--------------------------|----------------------|------------------------|

C#m      F#m         B           
B
--------------------------|--------------------------|-----------2--------|--2---------------2---|
--9-----------------9-----|--9-----------------9-----|--5-----------------|---------------------4|
------------9----------9--|------------9----------9--|--------------------|---------------4------|
-------9---------9--------|-------9---------9--------|-----------4--------|----------------------|
--7-----------------------|--7-----------------------|--4-----------------|--2-------------------|
--------------------------|--------------------------|--------------------|----------------------|

E        G#          C#m                      F#m
--7-----------------|------------------------|--2--------2---------|-----------0-------------|
-----------4--------|--5------------------5--|----------------2----|--0----------------5--4--|
--------------------|------------------6-----|---------------------|-------------------------|
--------------------|---------------6--------|---------------------|----------------6--------|
--7--------6--------|--4---------------------|--4------------------|-------------------------|
--------------------|------------------------|---------------------|--0----------------------|

C#m                        C#m                        A
--------------------------|--------------------------|---------------------|
--5-----------------5--4--|--5-----------------5--4--|--2------------------|
------------6-------------|------------6-------------|-------2-------------|
-------6---------6--------|-------6---------6--------|----------------2----|
--4-----------------------|--4-----------------------|--0------------------|
--------------------------|--------------------------|---------------------|

E                        E
-------------------------|------------------------|---------------------|------------------------|
--2----------------------|--9---------------9-----|--9------------9--7--|------------------9-----|
-------2--------------2--|---------------------9--|---------------------|---------------------9--|
----------------2--4-----|---------------9--------|---------------------|--9------------9--------|
--0----------------------|--7---------------------|--7------------------|--7---------------------|
-------------------------|------------------------|---------------------|------------------------|

A                        A        D           E
------------------------|------------------0-----|--0--------2--------|-------------------|
--9---------------9-----|--2------------------2--|--------------------|-------------------|
---------------------9--|---------------2--------|--------------------|-------------------|
---------------9--------|------------------------|-----------0--------|--9----------------|
--7---------------------|--0---------------------|--0-----------------|--7----------------|
------------------------|------------------------|--------------------|-------------------|

A                     A        A           E
------------------------|---------------0-----|-----------0--------|-------------------|
------------------9-----|---------------------|--2-----------------|--0----------------|
---------------------9--|--2---------------2--|--------------------|-------------------|
--L------------9--------|---------------------|--------------------|-------------------|
--L---------------------|--0------------------|--0--------0--------|-------------------|
------------------------|---------------------|--------------------|--0----------------|

F#m                    C#m
-------------------|-----------------2--4--|--5--------------5----|--4--------------4----|
--L----------------|-----------------------|------------2---------|------------5---------|
-------------------|-----------------------|-------2--------------|-------6--------------|
-------------------|-----------------------|----------------------|----------------------|
-------------------|-----------------------|----------------------|--4-------------------|
--L----------------|-----------------------|--2-------------------|----------------------|

G#                     C#m                    D                      C#m
--4-------------------|----------------------|--2--------------2----|----------------------|
-----------------4----|--5--------------5----|------------3---------|-----------------5----|
------------5---------|------------6---------|-------2--------------|--6---------6---------|
-------6--------------|-------6--------------|--0-------------------|-------6--------------|
--6-------------------|--4-------------------|----------------------|--4-------------------|
----------------------|----------------------|----------------------|----------------------|

C#m                 G#                  C#m
-------------------|-------------------|-------------------||
--5----------------|-------------------|-------------------||
-------------------|--5----------------|--6----------------||
-------------------|-------------------|-------------------||
--4----------------|-------------------|--4----------------||
-------------------|--4----------------|-------------------||
 
 
Bryan Adams - Nothing Ive Ever Known Tab :: indexed at Ultimate Guitar.
Nothing Ive Ever Known tabs @ 911Tabs

About the artist behind Nothing Ive Ever Known Tab:

Bryan Adams OC, OBC,[1] (born Bryan Guy Adams on November 5, 1959)[2][3][4] is a Canadian rock singer-songwriter, musician and photographer. Some of his best-known albums are Reckless, 18 til I Die, and Waking Up the Neighbours. Adams has been nominated three times for Academy Awards for his songwriting in films.[5]

Indexed at Wikipedia.

Show us your talent, perform Nothing Ive Ever Known Tab!

Here you can post a video or audio performance. Tell me more ...
Where can we find your performance? Tell me more ...
Your comment:
Please, log in to post your performance.