Artists by letter: A B C D E F G H I J K L M N O P Q R S T U V W X Y Z 0-9

 
Shine Tab
-------------------------------------------------------------------------------
Shine - Be Bop Deluxe
-------------------------------------------------------------------------------

Tabbed by: axe victim

Email: [email protected]

Leave a message on my  'Ultimate Guitar'  profile if you like or
comment here and I'll get back to you. email address above.

Tuning: EADGBe

| /  slide up
| \  slide down
| s  slur ( very rapid slide )
| h  hammer-on
| p  pull-off
| ~  vibrato or sustain
| +  natural harmonic
| *  pinch harmonic
| x  Mute note
| b  bend note
| ^  slight bend (or quarter tone bend)
| r  relax bend
| pb pre-bend
|(3) optional note
|(00:25) time marker



By popular demand, this great instrumental track from their live album.
This is really a work in progress, I will add the guitar solo and
other details later.

Some of this is quite advanced and requires three-note-per string
scales using 1st, 2nd and 4th fingers, you can write to me if you
need more info.



Intro: Begins with Drums and Bass only...

___________________________________________________________________
( Bass, arranged for guitar... )
e|--------------------------------|--------------------------------|
B|--------------------------------|--------------------------------|
G|--------------------------------|--------------------------------|
D|--------------------------------|-------------------------11-/12-|
A|--------------------------------|-------------------------10-/11-|
E|--------------------------------|--------------------------------|

| 1 - & - 2 - & - 3 - & - 4 - & -| 1 - & - 2 - & - 3 - & - 4 - & -|

___________________________________________________________________
( Bass, arranged for guitar... )
e|--------------------------------|--------------------------------|
B|--------------------------------|--------------------------------|
G|--------------------------------|--------------------------------|
D|--------------------------------|-----------------------------12\|
A|-----------------------------4h5------5-----6-----7-----------11\|
E|-0------------------------------|--------------------------------|

___________________________________________________________________
( Bass, arranged for guitar... )
e|--------------------------------|--------------------------------|
B|--------------------------------|--------------------------------|
G|--------------------------------|--------------------------------|
D|--------------------------------|-------------------------11--11\|
A|-------------5------------------|-5-----5---x-6---7-------10--10\|
E|-0------------------------------|--------------------------------|

___________________________________________________________________
( Guitar comes in... )        s = slur, very rapid slide...
e|--------------------------------|-------------12----12----12\----|
B|---------------(mute)----x------|-------------12----------12\----|
G|---------------12--14----x------9s11~~~/12----------------12\----|
D|---------------12--14----x------9s11~~~/12----------------12\----|
A|--------------------------------0~~~~~~~~~-----------------------|
E|-0------------------------------|--------------------------------|

___________________________________________________________________

e|--------------------------------|---------12-12-------15--14--12-|
B|--------------------------------|-11/12---12-12-------12--12--12-|
G|--------------------------------|-11/12--------------------------|
D|--------------------------------|-11/12--------------------------|
A|--------------------------------|--------------------------------|
E|-0------------------------------|--------------------------------|

___________________________________________________________________

e|--------------------------------|--------------------------------|
B|--------------------------------|--------------------------------|
G|--------------------------------|--------------------------------|
D|--------------------------------|-------------------------11-/12-|
A|--------------------------------|-------------------------10-/11-|
E|--------------------------------|--------------------------------|

___E9______________________________________________________________

e|--------------------------------|--------------------------------|
B|--------------------------------|--------------------------------|
G|--------------------------------|--------------------------------|
D|--------------------------------|-------------------------7\-----|
A|-------4-----5~~~~~~~~~~~~~~~~~~~~~~~~~~~~~~~~~~~~--------5\-----|
E|-0------------------------------|--------------------------------|

___E9______________________________________________________________

e|--------------------------------|--------------------------------|
B|--------------------------------|--------------------------------|
G|--------------------------------|--------------------------------|
D|--------------------------------|-------------------------2p0----|
A|-------4-----5~~~~~~~~~~~~~~~~~~~~~~~~~~~~~~~~~~~~------------2--|
E|-0------------------------------|--------------------------------|

___E9_____________________________

e|--------------------------------|
B|--------------------------------|
G|--------------------------------|
D|--------------------------------|
A|-------4-----5~~~~~~~~~~~~~~~~~-|
E|-0------------------------------|

| 1 - & - 2 - & - 3 - & - 4 - & -|



( note this next bar is stretched... )

___E9_____________________________________________________________
(00:43)
e|-----------------12--12--12--12--12------9-------10------9------|
B|-----------------12--12--12--12--12------9-------10------9------|
G|-----------------x---x---x---x---x-------x-------x-------x------|
D|-----------------14--14--14--14--14------11------13------11-----|
A|----------------------------------------------------------------|
E|----------------------------------------------------------------|

| 1   -   &   -   2   -   &   -   3   -   &   -   4   -   &   -  |



Part A:

Main theme and riff:

____________________________________________________________E9_____
(00:44)
e|--------------------------------|------------------------(0)-----|
B|--------------------------------|-------------------------5------|
G|--------------------------------|-------------------------5------|
D|--------------------------------|-------------------------4------|
A|-------4-----5-------4---2h4-2h4--------4-----5-----------5------|
E|-0------------------------------|-0-------------------0----------|

| 1 - & - 2 - & - 3 - & - 4 - & -| 1 - & - 2 - & - 3 - & - 4 - & -|

Repeat four times...

Melody:

___E9______________________________________________________________
(01:01)
e|--------------------------------|--------------------------------|
B|--------------------------------|--------------------------------|
G|--------------------------------|--------------------------------|
D|--------------------------------|-9b11-r9~~----------------------|
A|-9b10--9-----7~~-------------7--|-------------9b10---r9~-7h9p7---|
E|---------------------9---7h9----|------------------------------9-|

| 1 - & - 2 - & - 3 - & - 4 - & -| 1 - & - 2 - & - 3 - & - 4 - & -|

___E9______________________________________________________________
                             ( feedback, first time... )
e|--------------------------------|--------------------------------|
B|--------------------------------|--------------------------------|
G|--------------------------------|--------------------------------|
D|--------------------------------|--------------------------------|
A|-7h9p7---7~~--------------------|--------------------------------|
E|-------9-----0~~~~~~~~~~~~~~~~~~~~~~~~~~~~~~~~~~~~~~~~~~~~\------|

___E9______________________________________________________________

e|--------------------------------|--------------------------------|
B|--------------------------------|--------------------------------|
G|--------------------------------|--------------------------------|
D|--------------------------------|-9b11-r9~~----------------------|
A|-9b10--9-----7~~-------------7--|-------------9b10---r9~-7h9p7---|
E|---------------------9---7h9----|------------------------------9-|

___E9_____________________________

e|--------------------------------|
B|--------------------------------|
G|--------------------------------|
D|--------------------------------|
A|-7h9p7---7~~--------------------|
E|-------9-----0~~~~~~~~~~~-------|

___E9_____________________________________________________________
(01:16)
e|---------12-----------------------------------------------------|
B|-------------12--15---------------------------------------------|
G|/13------------------14------12-h13-----------------------------|
D|/14----------------------14----------14--12---------------------|
A|---------------------------------------------14-p12\------------|
E|----------------------------------------------------------------|



Part B:      ( rhythm chord shapes in brackets... )

___A_(x0222x)______________D/A_(x0423x)___________________________
(01:18)                                    ( big vibrato... )
e|----------------------------------------------------------------|
B|----------------------------------------------------------------|
G|-------------------------7--------------/11~~~~~~~~~~~~~~-------|
D|-----------------7----------------------------------------------|
A|/9--------------------------------------------------------------|
E|----------------------------------------------------------------|

| 1   -   &   -   2   -   &   -   3   -   &   -   4   -   &   -  |

___A_(x0225x)______________D/A_(x0423x)___________________________

e|--------------------------------------------9----10---------9---|
B|-----------9----10---------9----10---12---------------12--------|
G|-9----11-------------11-----------------------------------------|
D|----------------------------------------------------------------|
A|----------------------------------------------------------------|
E|----------------------------------------------------------------|

___A_(x0222x)______________D/A_(x0423x)___________________________

e|-10------12------9-h10p9----------------------------------------|
B|-------------------------10-------------------------------------|
G|---------------------------------9~~~~~~~~~~~~~~~---------------|
D|----------------------------------------------------------------|
A|----------------------------------------------------------------|
E|----------------------------------------------------------------|

___A_(x0225x)______________D/A_(x0423x)___________________________

e|-12b14-----------12~~~~~~--------9-h12p9-----9------------------|
B|-----------------------------------------10------10-------------|
G|-----------------------------------------------------9\---------|
D|----------------------------------------------------------------|
A|----------------------------------------------------------------|
E|----------------------------------------------------------------|

Part A repeats, more or less the same.

I have stretched some of the bars to show detail...

___E9______________________________________________________________
(01:27)
e|--------------------------------|--------------------------------|
B|--------------------------------|--------------------------------|
G|--------------------------------|--------------------------------|
D|--------------------------------|-9b11-r9~~----------------------|
A|-9b10--9-----7~~-------------7--|-------------9b10---r9~-7h9p7---|
E|---------------------9---7h9----|------------------------------9-|

___E9_____________________________________________________________

e|-------------------------------------------------------------------|
B|---------------------------------------------------------------12--|
G|------------------------------------------------------------13-----|
D|--------------------------------------------------------/14--------|
A|-7--h9--p7-------7-------------------------------------------------|
E|-------------9-----------0-----------------------------------------|

___E9_____________________________________________________________
(01:33)
e|-12-------------------------------------------------------------|
B|-----12--15--14--12---------------------------------------------|
G|-------------14--12-h13------14--12-----h13---------------------|
D|-----------------12------14----------------------14~~~~~~\------|
A|----------------------------------------------------------------|
E|----------------------------------------------------------------|

___E9______________________________________________________________

e|--------------------------------|--------------------------------|
B|--------------------------------|--------------------------------|
G|--------------------------------|--------------------------------|
D|--------------------------------|-9b11-r9b11r9-------------------|
A|-9b10--9-----7~~-------------7--|--------------9b10--r9~-7h9p7---|
E|---------------------9---7h9----|------------------------------9-|

___E9_____________________________________________________________

e|-------------------------------------------------------------------|
B|---------------------------------------------------------------12--|
G|------------------------------------------------------------13-----|
D|--------------------------------------------------------/14--------|
A|-7--h9--p7-------7-------------------------------------------------|
E|-------------9-----------0-----------------------------------------|

___E9_____________________________________________________________
 1:40:33
e|-12-------------------------------------------------------------|
B|-----12--15--14-------------------------------------------------|
G|-------------14--12-h13-----------------------------------------|
D|-------------------------14--14--12-----------------------------|
A|-------------------------------------14-p13-p12-\11-------------|
E|----------------------------------------------------------------|



Part B: ( rhythm chords in brackets, hit each chord once... )

___A_(x0222x)______________D/A_(x0423x)___________________________
(01:43)
e|----------------------------------------------------------------|
B|----------------------------------------------------------------|
G|----------------------------------------------------------------|
D|-----------------------------7~~~~---------------7-------9--h11-|
A|-7-------------------7--h9---------------9----------------------|
E|-5--------------/9----------------------------------------------|

___A_(x0225x)______________D/A_(x0423x)___________________________

e|-------------------------------10------10h12----/14------12-----|
B|---------10-p9--------10h12h14----12h14-------------------------|
G|-9--h11----------11h13------------------------------------------|
D|----------------------------------------------------------------|
A|----------------------------------------------------------------|
E|----------------------------------------------------------------|

___A_(x0222x)______________D/A_(x0423x)___________________________

e|-14---/16---16----------------------------------------------------|
B|-----------------17~~~~~~------------------------14h17p14-----14--|
G|---------------------------------------------------------16b18----|
D|------------------------------------------------------------------|
A|------------------------------------------------------------------|
E|------------------------------------------------------------------|

___A_(x0225x)______________D/A_(x0423x)___________________________

e|---------14----------------------14-----------------------------|
B|------------17p14------14-----------17p14------14---------------|
G|-16b18~~---------16b18---16b18~~---------16b18---16b18~~~~~~\---|
D|----------------------------------------------------------------|
A|----------------------------------------------------------------|
E|----------------------------------------------------------------|



Repeat main theme, more or less the same @ (01:51)



Part C:

___Em7____________________________________________________________
(02:08)   ( + = harmonics... )
e|----------------------------------------------------------------|
B|-12+~~~~~~~~~~~~~~~~~~~~~~~~~~~~~~~~~~~~~~~~~~~~~~~~------------|
G|-12+~~~~~~~~~~~~~~~~~~~~~~~~~~~~~~~~~~~~~~~~~~~~~~~~------------|
D|-12+~~~~~~~~~~~~~~~~~~~~~~~~~~~~~~~~~~~~~~~~~~~~~~~~------------|
A|----------------------------------------------------------------|
E|(0)-------------------------------------------------------------|

___D/E____________________________________________________________
          ( + = harmonics... )
e|----------------------------------------------------------------|
B|-7+~~~~~~~~~~~~~~~~~~~~~~~~~~~~~~~~~~~~~~~~~~~~~~~~~------------|
G|-7+~~~~~~~~~~~~~~~~~~~~~~~~~~~~~~~~~~~~~~~~~~~~~~~~~------------|
D|-7+~~~~~~~~~~~~~~~~~~~~~~~~~~~~~~~~~~~~~~~~~~~~~~~~~------------|
A|----------------------------------------------------------------|
E|(0)-------------------------------------------------------------|

___Em7____________________________________________________________
          ( + = harmonics... )
e|----------------------------------------------------------------|
B|-5+~~~~~~~~~~~~~~~~~~~~~~~~~~~~~~~~~~~~~~~~~~~~~~~~~~-----------|
G|-5+~~~~~~~~~~~~~~~~~~~~~~~~~~~~~~~~~~~~~~~~~~~~~~~~~~-----------|
D|-5+~~~~~~~~~~~~~~~~~~~~~~~~~~~~~~~~~~~~~~~~~~~~~~~~~~-----------|
A|----------------------------------------------------------------|
E|(0)-------------------------------------------------------------|

___D/E____________________________________________________________
          ( + = harmonics... )
e|----------------------------------------------------------------|
B|-7+~~~~~~~~~~~~~~~~~~~~~~~~~~~~~~~~~~~~~~~~~~~~~~~~~~-----------|
G|-7+~~~~~~~~~~~~~~~~~~~~~~~~~~~~~~~~~~~~~~~~~~~~~~~~~~--------12+|
D|-7+~~~~~~~~~~~~~~~~~~~~~~~~~~~~~~~~~~~~~~~~~~~~~~~~~~----12+----|
A|----------------------------------------------------------------|
E|(0)-------------------------------------------------------------|

___Em7____________________________________________________________
          ( + = harmonics... )
e|----------------------------------------------------------------|
B|-12+~~~~~~~~~~~~~~~~~~~~~~~~~~~~~~~~~~~~~~~~~~~~~~~~~-----------|
G|-------------------------------------------------------------7+-|
D|---------------------------------------------------------7+-----|
A|----------------------------------------------------------------|
E|----------------------------------------------------------------|

___D/E____________________________________________________________
          ( + = harmonics... )
e|----------------------------------------------------------------|
B|-7+~~~~~~~~~~~~~~~~~~~~~~~~~~~~~~~~~~~~~~~~~~~~~~~~~~-----------|
G|-------------------------------------------------------------5+-|
D|---------------------------------------------------------5+-----|
A|----------------------------------------------------------------|
E|----------------------------------------------------------------|

___Em7____________________________________________________________
          ( + harmonics... )
e|----------------------------------------------------------------|
B|-5+~~~~~~~~~~~~~~~~~~~~~~~~~~~~~~~~~~~~~~~~~~~~~~~~~~--------7+-|
G|----------------------------------------------------------------|
D|---------------------------------------------------------7+-----|
A|----------------------------------------------------------------|
E|----------------------------------------------------------------|

___D/E____________________________________________________________
          ( + = harmonics... )
e|----------------------------------------------------------------|
B|----------------------------------------------------------------|
G|-7+~~~~~~~~~~~~~~~~~~~~~~~~~~~~~~~------------------------------|
D|----------------------------------------------------------------|
A|----------------------------------------------------------------|
E|----------------------------------------------------------------|

Piano solo follows, guitar vamps on E9 chord until guitar solo.



Guitar solo... ( half tempo now... )

___________________________________________________________________

e|-0------------------------------|--------------------------------|
B|-0------------------------------|--------------------------------|
G|-x------------------------------|--------------------------------|
D|-2------------------------------|--------------------------------|
A|-2------------------------------|--------------------------------|
E|-0------------------------------|--------------------------------|

| 1 - & - 2 - & - 3 - & - 4 - & -| 1 - & - 2 - & - 3 - & - 4 - & -|

___________________________________________________________________
   mute and rake             mute and slide hand from pick-ups to 12th fret
e|------x-------------------------|-----x\--x\--x\--x\--x\--x\--x\-|
B|-----x--------------------------|-----x\--x\--x\--x\--x\--x\--x\-|
G|----x---------------------------|-----x\--x\--x\--x\--x\--x\--x\-|
D|---x----------------------------|-----x\--x\--x\--x\--x\--x\--x\-|
A|--x-----------------------------|-----x\--x\--x\--x\--x\--x\--x\-|
E|-x------------------------------|-----x\--x\--x\--x\--x\--x\--x\-|

| 1 - & - 2 - & - 3 - & - 4 - & -| 1 - & - 2 - & - 3 - & - 4 - & -|

___________________________________________________________________
                            ( feedback... )
e|--------------------------------|--------------------------------|
B|--------------------------------|--------------------------------|
G|-12~~~~~~~~~~~~~~~~~~~~~~~~~~~~~~~~~~~~~~~~~~~~~~~~~~~~~~\-------|
D|--------------------------------|--------------------------------|
A|--------------------------------|--------------------------------|
E|--------------------------------|--------------------------------|

___________________________________________________________________
       ( s = slur; very rapid slide, sounds like one note... )
e|--------------------------------|--------------------------------|
B|-7---8--7h8p7-------------------|--------------------------------|
G|-------------9-7---9p7----------|--------------------------------|
D|-------------------------9s7-5--|--------------------------------|
A|--------------------------------|-7~~~~~~~~~~~~~~~~~~~~~~~\------|
E|--------------------------------|--------------------------------|

Stretched bars now...

__________________________________________________________________

e|-3--2--0---------3--2--0---------3--2--0---------3--2--0----------|
B|---------3--2--0---------3--2--0---------3--2--0---------3--2--0--|
G|------------------------------------------------------------------|
D|------------------------------------------------------------------|
A|------------------------------------------------------------------|
E|------------------------------------------------------------------|

| 1   -   &   -   2   -   &   -   3   -   &   -   4   -   &   -  |

__________________________________________________________________

e|-3--2--0-----------------3--2--0-----------------3--2--0----------|
B|---------3--2--0-----------------3--2--0-----------------3--2--0--|
G|-----------------4--2--0-----------------4--2--0------------------|
D|------------------------------------------------------------------|
A|------------------------------------------------------------------|
E|------------------------------------------------------------------|

__________________________________________________________________

e|---------3--2--0--------------------------------------------------|
B|-----------------3--2--0---------------------------------------3--|
G|-4--2--0-----------------4--2--0-------------------------0--/4----|
D|---------------------------------4--2--0-0---2---0----------------|
A|------------------------------------------------------------------|
E|------------------------------------------------------------------|

__________________________________________________________________

e|-3---------------3----------------------------------------------|
B|-----3---5---3-0------------------------------------------------|
G|---------------------4p3p2--p0---2--p0---2---0---0h1------------|
D|---------------------------------------2-2---0-------2~~~~------|
A|----------------------------------------------------------------|
E|----------------------------------------------------------------|

__________________________________________________________________

e|----------------------------------------------------------------|
B|----------------------------------------------------------------|
G|----------------------------------------------------------------|
D|----------------------------------------------------------------|
A|----------------------------------------------------------------|
E|-0~~~~~~~~~~~~~~~~~~~~~~~~~~~~~~~~~~~~~~~~~~~~~~~~~~~~~~~-------|

__________________________________________________________________
(04:40)            ( double stop - two notes at same time... )
e|-12~~~~~~----------------12~~~~~~12~~~~12~~~~12\----------------|
B|-15b17~~~----------------15b17~~~15b17~15b17~15\----------------|
G|----------------------------------------------------------------|
D|----------------------------------------------------------------|
A|----------------------------------------------------------------|
E|----------------------------------------------------------------|

__________________________________________________________________

e|----------------------------------------------------------------|
B|----------------------------------------------------------------|
G|----------------------------------------------------------------|
D|----------------------------------------------------------------|
A|----------------------------------------------------------------|
E|-0~~~~~~~~~~~~~~~~~~~~~~~~~~~~~~~~~~~~~~~~~~~~~~~~~~~~~~~-------|

__________________________________________________________________

e|-12~~~~~~----------------12~~~~~~12~~~~12~~~~12\----------------|
B|-15b17~~~----------------15b17~~~15b17~15b17~15\----------------|
G|----------------------------------------------------------------|
D|----------------------------------------------------------------|
A|----------------------------------------------------------------|
E|----------------------------------------------------------------|



__________________________________________________________________

e|----------------------------------------------------------------|
B|----------------------------------------------------------------|
G|-----------------14b16~~r14-p12-h14~~~~~~~~~~~~~~~~~~~~~~~~~~~~-|
D|----------------------------------------------------------------|
A|----------------------------------------------------------------|
E|----------------------------------------------------------------|



__________________________________________________________________

e|----------------------------------------------------------------|
B|---------------------12--15-14h15p14-15--12---------------------|
G|-12^-----14--12-h13------------------------------14------12h14p12-
D|-----14---------------------------------------------------------|
A|----------------------------------------------------------------|
E|----------------------------------------------------------------|

| 1   -   &   -   2   -   &   -   3   -   &   -   4   -   &   -  |

__________________________________________________________________
  ( 4:50 )
e|----------------------------------------------------------------|
B|----------------------------------------------------------------|
G|-11-h12-p11------11------------------------------11h12p11----11h13-
D|-------------12------12--14--11--12p11--11h12h14---------14-----|
A|--------------------------------------14------------------------|
E|----------------------------------------------------------------|

__________________________________________________________________

e|---------12-----------------------------------------------------|
B|-----12------15--12~~~~~~12-------------------------------------|
G|/13------------------14-------12h13----------------------12-h13-|
D|-------------------------------------14-p12------12-h14---------|
A|---------------------------------------------14-----------------|
E|----------------------------------------------------------------|

__________________________________________________________________

e|-----------------19b21~~~~~~~~~~~~~~~~~~~~~~~~-----------------12-
B|-12------12--------------------------------------------------12-|
G|-----------------------------------------------------------13---|
D|---------------------------------------------------------14-----|
A|----------------------------------------------------------------|
E|----------------------------------------------------------------|

__________________________________________________________________
  ( 4:57 )
e|14/16-12/14------12---------------------------------------------|
B|----------------------12----------------------------------------|
G|---------------------------13-----------------------------------|
D|---------------------------------14-----------------------------|
A|---------------------------------------14--p12--\11~~~~~~\------|
E|----------------------------------------------------------------|

__________________________________________________________________
         ( mute notes in brackets )            ^ = slight bend
e|----------------------------------------------------------------|
B|----------------------------------------------------------------|
G|-------------------------------------------------12~~~~~~~^-----|
D|-----------------------------------(12---14)-----12~~~~~~~^-----|
A|------------------------(12----14)------------------------------|
E|----------------------------------------------------------------|

__________________________________________________________________

e|----------------------------------------------------------------|
B|----------------------------------------------------------------|
G|-----------------12----------14------12-------------------------|
D|-----------------12------14--14----------14------14~~~~~~\------|
A|----------------------------------------------------------------|
E|(0)-------------------------------------------------------------|

__________________________________________________________________
  ( 5:03 )         ( + = natural harmonic... )
e|-----------------------------5+~~~~~~~~~~~~~~-------------------|
B|-----------------5---3---5--------------------------------------|
G|---------2-/3-/4---------------------------------2---2---0------|
D|-------------------------------------------------------------2--|
A|----------------------------------------------------------------|
E|----------------------------------------------------------------|

__________________________________________________________________
 ( 5:08 )
e|----------------------------------------------------------------|
B|----------------------------------------------------------------|
G|-2---0--h1------------------------------------------------------|
D|-------------2---------------------------------------0---2------|
A|-----------------2---1---0-------0-------1-------2--------------|
E|-----------------------------3----------------------------------|

__________________________________________________________________

e|----------------------------------------------------------------|
B|----------------------------------------------------------------|
G|-0----1----------2----------3---------4----------5----------6---|
D|------------2----------2---------2---------2-----------2--------|
A|----------------------------------------------------------------|
E|----------------------------------------------------------------|

__________________________________________________________________

e|----------------------------------------------------------------|
B|----------------------------------------------------------------|
G|------7---------/8--------/9------------/9-/10-/11~~~~~~~11/----|
D|-2---------2----------2---------2-------------------------------|
A|----------------------------------------------------------------|
E|----------------------------------------------------------------|

__________________________________________________________________
 ( 5:12 )
e|-------------12------------------------------------------12-----|
B|------------x----15~~~~~~~~~~~~~~~~~~~~~~~~~~~~~~~~~~~~~~-------|
G|-----------x----------------------------------------------------|
D|----------------------------------------------------------------|
A|----------------------------------------------------------------|
E|----------------------------------------------------------------|

__________________________________________________________________

e|----------------------------------------------------------------|
B|-15-------------------------------------------------------------|
G|-----16--14\-----12------14--12---------------------------------|
D|---------------------14--14------14--12--14--12-----------------|
A|-----------------------------------------------14s12-----10b11--|
E|----------------------------------------------------------------|

__________________________________________________________________
 ( 5:16 )                   ^ = slight bend
e|----------------------------------------------------------------|
B|----------------------------------------------------------------|
G|----------------------------------------------------------------|
D|----------------------------------------------------------------|
A|---------------------------------10^-----12------10^------------|
E|-12----------------------------------12------------------12-----|

__________________________________________________________________
      x = mute note.  Hold bend for duration of passage...
e|----------------------------------------------------------------|
B|----------------------------------------------------------------|
G|-14b16~~~x-x-16--16------16--16------16--16------16~~~~~~~------|
D|----------------------------------------------------------------|
A|----------------------------------------------------------------|
E|----------------------------------------------------------------|

__________________________________________________________________
 ( 5:20 )
e|----------------------------------------------------------------|
B|-------------------------------------------------12~~~----------|
G|-16----------16--16------16--16----------16-r14~~---12~~b13-----|
D|----------------------------------------------------------------|
A|----------------------------------------------------------------|
E|----------------------------------------------------------------|

__________________________________________________________________

e|-----------------------------------------12---------------------|
B|-------------------------------------12------15--12-------------|
G|-----------------12------14--12-h13------------------14--12-b13-|
D|-12------------------14-----------------------------------------|
A|----------------------------------------------------------------|
E|----------------------------------------------------------------|

__________________________________________________________________
 ( 5:24 )
e|----------------------------------------------------------------|
B|------------------------------------------------------17-19-----|
G|-----------------12------------------------------16h18----------|
D|-12~~~~~~~~~~~~~~----14--12----------12--16-h18-----------------|
A|-----------------------------14-/16-----------------------------|
E|----------------------------------------------------------------|

__________________________________________________________________
                 double stops, notes overlap...
e|---------19~~--------19~~--------19~~--------19~~--------19~~---|
B|-19b21~~~~~~~19b21~~~~~~~19b21~~~~~~~19b21~~~~~~~19b21~~~~~~~19~~
G|----------------------------------------------------------------|
D|----------------------------------------------------------------|
A|----------------------------------------------------------------|
E|----------------------------------------------------------------|

__________________________________________________________________

e|-----19~~--------19~~--------19~~--------19~~-------------------|
B|b21~~~~~~19b21~~~~~~~19b21~~~~~~~19b21~~~~~~~21~r19--17--19-----|
G|-------------------------------------------------------------18-|
D|----------------------------------------------------------------|
A|----------------------------------------------------------------|
E|----------------------------------------------------------------|

__________________________________________________________________
 ( 5:31 )                    s = slur; very rapid slide
e|----------------------------------------------------------------|
B|-17-------------------------------------------------------------|
G|-----18~~~~~~~~~-16---18p16--16-------14-----14-p13--14--13-----|
D|---------------------------18----18s16---16------------------14-|
A|----------------------------------------------------------------|
E|----------------------------------------------------------------|

__________________________________________________________________

e|----------------------------------------------------------------|
B|----------------------------------------------------------------|
G|-13-------------------------------------------------------------|
D|---------14-14-14-14--14--14---14---14---14--14--14\------------|
A|----------------------------------------------------------------|
E|----------------------------------------------------------------|

__________________________________________________________________
 ( 5:35 )
e|----------------------------------------------------------------|
B|----------------------------------------------------------------|
G|----------------------------------------------------------------|
D|----------------------------------------------------------------|
A|----------------------------------------------------------------|
E|-0~~~~~~~~~~~~~~~~~~~~~~~~~~~~~~~~~~~~~~~~~~~~~~~~~~~~~~~~~~~~~~~

__________________________________________________________________
                            ( feedback... )
e|----------------------------------------------------------------|
B|----------------------------------------------------------------|
G|----------------------------------------------------------------|
D|----------------------------------------------------------------|
A|----------------------------------------------------------------|
E|~0~~~~~~~~~~~~~~~~~~~~~~~~~~~~~~~~~~~~~~~~~~~~~~~~~~~~~~~~~~~~~~|

__________________________________________________________________
 ( 5:39 )     v = whammy dip,  + = natural harmonics
e|----------------------------------------------------------------|
B|-----------------7+~~~~~~---------------------------------------|
G|-------------------------5+~~~~~~~~~~~~~~~~~~~~~~~~~~~~~~~~~~~~~|
D|----------------------------------------------------------------|
A|----------------------------------------------------------------|
E|-0~~~v~~~~~~~~~~~-----------------------------------------------|

__________________________________________________________________

e|----------------------------------------------------------------|
B|----------------------------------------------------------------|
G|----------------------------------------------------------------|
D|-5+~~~~~~~~~~~~~~~~~~~~~~~~~~~~~~~~~~~~~~~~~~~~~~---------------|
A|----------------------------------------------------------------|
E|-------------------------------------------------15\------------|



__________________________________________________________________

e|----------------------------------------------------------------|
B|----------------------------------------------------------------|
G|----------------------------------------------------------------|
D|----------------------------------------------------------------|
A|-------------4-------x---5~~~~~~~~~~~~~~~~~~~~~~~~~~~~~~~~~~~---|
E|-0-------x------------------------------------------------------|

__________________________________________________________________

e|-----------------------------------------3p2p0------------------|
B|-------------------------------------------------3p2p0----------|
G|---------------------------------------------------------3p2p0--|
D|----------------------------------------------------------------|
A|-------------4-------x---5--------------------------------------|
E|-0-------x------------------------------------------------------|

__________________________________________________________________

e|----------------------------------------------------------------|
B|----------------------------------------------------------------|
G|-------------------------------------------------9--p7---9/-----|
D|-------------------------------------------------9--------------|
A|-------------4-------x---5--------------------------------------|
E|-0-------x------------------------------------------------------|

__________________________________________________________________

e|-12-------------------------------------------------------------|
B|-----12--15-----------------------------------------------------|
G|-------------14--12--13------14--12--13--------------13p12p11\9----
D|-------------------------14--------------14--12--11-------------11-
A|----------------------------------------------------------------|
E|----------------------------------------------------------------|

__________________________________________________________________
 ( 5:53 )
e|----------------------------------------------------------------|
B|---------------------------------------------------------9------|
G|-----------------9-------9-------9---9-------9-------9----------|
D|-b12r11b12r11b12------------------------------------------------|
A|----------------------------------------------------------------|
E|----------------------------------------------------------------|

__________________________________________________________________

e|----------------------------------------------------------------|
B|----------------------------------------------------------------|
G|-----9-----------9-------11^~r11p9h11p9--9~~~-------------------|
D|-------------11------------------------11--------11~~~~~--------|
A|----------------------------------------------------------------|
E|----------------------------------------------------------------|

__________________________________________________________________
                             hold bent note...
e|---------------------------------12-----------------------------|
B|-----------------------------------------12---------------------|
G|---------11~~b~~~13~~~~~~~~~~~~~~~~~~~~~~~~~~~~~~13~~r~~~11-----|
D|----------------------------------------------------------------|
A|----------------------------------------------------------------|
E|----------------------------------------------------------------|

__________________________________________________________________

e|----------------------------------------------------------------|
B|----------------------------------------------------------------|
G|-9-11-9------11--9----------------------------------------------|
D|--------11-----------11--9--------------------------------------|
A|-----------------------------11-\9--p7---9-p7----7--------------|
E|----------------------------------------------9----------9\-----|

__________________________________________________________________
                    ( mute open E strings... )
e|---------0---12------0---10------0---9--------------------------|
B|----------------------------------------------------------------|
G|-------------------------------------------------9\7~~~~~~~~~~~-|
D|----------------------------------------------------------------|
A|----------------------------------------------------------------|
E|-0--------------------------------------------------------------|

| 1   -   &   -   2   -   &   -   3   -   &   -   4   -   &   -  |

__________________________________________________________________
                                ( ^ = slight bend... )
e|-------------------------12-------------------------------------|
B|-----------------------------12--15p12---12---------------------|
G|(7)~~~~~~~~~~~~~~/~~~12---------------14-----12^----------------|
D|-------------------------------------------------12~~~~~~-------|
A|----------------------------------------------------------------|
E|----------------------------------------------------------------|

__________________________________________________________________
 ( 6:06 )
e|-------pb19~~~~~~~~~~~~~~~r17p15h17~~~~~~~~~~~~~~15h17p15p14h15-|
B|----------------------------------------------------------------|
G|----------------------------------------------------------------|
D|----------------------------------------------------------------|
A|----------------------------------------------------------------|
E|----------------------------------------------------------------|

__________________________________________________________________

e|-14------14-----------------------------------------------------|
B|-----15------15-------------------------------------------------|
G|-----------------14-\12----------12-\11-------------------------|
D|-----------------------------14----------12~~~~~~~~~~~~~~-------|
A|----------------------------------------------------------------|
E|----------------------------------------------------------------|

| 1   -   &   -   2   -   &   -   3   -   &   -   4   -   &   -  |



To be continued...



Music by Bill Nelson



| /  slide up
| \  slide down
| h  hammer-on
| p  pull-off
| ~  vibrato or sustain
| +  natural harmonic
| *  pinch harmonic
| x  Mute note
| b  bend note
| ^  slight bend (or quarter bend)
| r  relax bend
| pb pre-bend
|(3) optional note
|(00:25) time marker
 
 
Be Bop Deluxe - Shine Tab :: indexed at Ultimate Guitar.
Shine tabs @ 911Tabs

About the artist behind Shine Tab:

Be Bop Deluxe were an English progressive rock band who achieved critical acclaim and moderate commercial success during the mid to late 1970s.

Indexed at Wikipedia.

Show us your talent, perform Shine Tab!

Here you can post a video or audio performance. Tell me more ...
Where can we find your performance? Tell me more ...
Your comment:
Please, log in to post your performance.