Artists by letter: A B C D E F G H I J K L M N O P Q R S T U V W X Y Z 0-9

 
Waking Up Tab
-----------------------------------------------------------------
Waking Up The Ghost - 10 Years
-----------------------------------------------------------------
Tabbed by: CamBrown
Email:[email protected]

Tuning: Drop C

VERSE
e|---0--------0--------0--------0--------------------------------|
B|-----1h3------1h3------1h3------1h3----------------------------|
G|-2--------2----------------------------------------------------|
D|-------------------0--------0----------------------------------|
A|---------------------------------------------------------------|
E|---------------------------------------------------------------|

Guitar 2 (Comes in after 2 Bars.)
e|---------------------------------------------------------------|
B|---------------------------------------------------------------|
G|---------------------------------------------------------------|
D|---------------------------------------------------------------|
A|------------7---------3---5------------------------------------|
E|Palm muted--7---------3---5------------------------------------|

PRE CHORUS
e|---------------------------------------------------------------|
B|---------------------------------------------------------------|
G|---------------------------------------------------------------|
D|-0-0-x-x-x-0-0-x-x-x-0-0-x-x-x-x-x-x-x-x-x---------------------|
A|-0-0-x-x-x-0-0-x-x-x-0-0-x-x-x-x-x-x-x-x-x---------------------|
E|-0-0-x-x-x-0-0-x-x-x-0-0-x-x-x-x-x-x-x-x-x---------------------|

Chorus (Constant Strumming pattern)
e|---------------------------------------------------------------|
B|---------------------------------------------------------------|
G|-9- 11-12-----5--7--9--11--12--11------------------------------|
D|-7--9--10--0--3--5--7--9---10--9--0-0-x-x-x-0-0-x-x-x----------|
A|-7--9--10--0--3--5--7--9---10--9--0-0-x-x-x-0-0-x-x-x----------|
E|-7--9--10--0--3--5--7--9---10--9--0-0-x-x-x-0-0-x-x-x----------|

e|-------------------------------------------------------------------|
B|-------------------------------------------------------------------|
G|-9- 11-12-----5--7--9--11--12--11----------------------------------|
D|-7--9--10--0--3--5--7--9---10--9--0-0-x-x-x-0-0-x-x-x-0-0-x-x-x-0-0|
A|-7--9--10--0--3--5--7--9---10--9--0-0-x-x-x-0-0-x-x-x-0-0-x-x-x-0-0|
E|-7--9--10--0--3--5--7--9---10--9--0-0-x-x-x-0-0-x-x-x-0-0-x-x-x-0-0|

VERSE
e|---0--------0--------0--------0--------------------------------|
B|-----1h3------1h3------1h3------1h3----------------------------|
G|-2--------2----------------------------------------------------|
D|-------------------0--------0----------------------------------|
A|---------------------------------------------------------------|
E|---------------------------------------------------------------|

Guitar 2 (Comes in after 2 Bars.)
e|---------------------------------------------------------------|
B|---------------------------------------------------------------|
G|---------------------------------------------------------------|
D|---------------------------------------------------------------|
A|------------7---------3---5------------------------------------|
E|Palm muted--7---------3---5------------------------------------|

PRE CHORUS
e|---------------------------------------------------------------|
B|---------------------------------------------------------------|
G|---------------------------------------------------------------|
D|-0-0-x-x-x-0-0-x-x-x-0-0-x-x-x-x-x-x-x-x-x---------------------|
A|-0-0-x-x-x-0-0-x-x-x-0-0-x-x-x-x-x-x-x-x-x---------------------|
E|-0-0-x-x-x-0-0-x-x-x-0-0-x-x-x-x-x-x-x-x-x---------------------|

Chorus (Constant Strumming pattern)
e|---------------------------------------------------------------|
B|---------------------------------------------------------------|
G|-9- 11-12-----5--7--9--11--12--11------------------------------| (x3)
D|-7--9--10--0--3--5--7--9---10--9--0-0-x-x-x-0-0-x-x-x----------|
A|-7--9--10--0--3--5--7--9---10--9--0-0-x-x-x-0-0-x-x-x----------|
E|-7--9--10--0--3--5--7--9---10--9--0-0-x-x-x-0-0-x-x-x----------|

e|-------------------------------------------------------------------|
B|-------------------------------------------------------------------|
G|-9- 11-12-----5--7--9--11--12--11----------------------------------|
D|-7--9--10--0--3--5--7--9---10--9--0-0-x-x-x-0-0-x-x-x-0-0-x-x-x-0-0|
A|-7--9--10--0--3--5--7--9---10--9--0-0-x-x-x-0-0-x-x-x-0-0-x-x-x-0-0|
E|-7--9--10--0--3--5--7--9---10--9--0-0-x-x-x-0-0-x-x-x-0-0-x-x-x-0-0|

BRIDGE
e|---------------------------------------------------------------|
B|---------------------------------------------------------------|
G|---------------------------------------------------------------| (X4) 
D|---------------------------------------------------------------|
A|--5h3h5--8h5h8--10h8h10--12h10h12------------------------------|
E|---------------------------------------------------------------|

e|---------------------------------------------------------------|
B|---------------------------------------------------------------|
G|---------------------------------------------------------------| (X2)
D|----------------------------------3-3-5-5----------------------|
A|-0-0----0-0----0-0----0-0----0-0--3-3-5-5----------------------|
E|-0-0----0-0----0-0----0-0----0-0--3-3-5-5----------------------|

e|------Palm mute the E string---------------------------------------|
B|-------------------------------------------------------------------|
G|-------------------------------------------------------------------|
D|-----7------9----10----0------3----5----7----9----10----9--0-0--0-0|
A|---7(x2)--9----10----0(x2)--3----5----7----9----10----9----0-0--0-0|
E|-7------9----10----0------3----5----7----9----10----9------0-0--0-0|

CHORUS
e|---------------------------------------------------------------|
B|---------------------------------------------------------------|
G|-9- 11-12-----5--7--9--11--12--11------------------------------| (x3)
D|-7--9--10--0--3--5--7--9---10--9--0-0-x-x-x-0-0-x-x-x----------|
A|-7--9--10--0--3--5--7--9---10--9--0-0-x-x-x-0-0-x-x-x----------|
E|-7--9--10--0--3--5--7--9---10--9--0-0-x-x-x-0-0-x-x-x----------|

e|-------------------------------------------------------------------|
B|-------------------------------------------------------------------|
G|-9- 11-12-----5--7--9--11--12--11----------------------------------|
D|-7--9--10--0--3--5--7--9---10--9--0-0-x-x-x-0-0-x-x-x-0-0-x-x-x-0-0|
A|-7--9--10--0--3--5--7--9---10--9--0-0-x-x-x-0-0-x-x-x-0-0-x-x-x-0-0|
E|-7--9--10--0--3--5--7--9---10--9--0-0-x-x-x-0-0-x-x-x-0-0-x-x-x-0-0|

e|---------------------------------------------------------------|
B|----------------------------------------------2-2--------------|
G|----------------------------------------------3-3--------------| (X2)
D|----------------------------------------------0-0--------------|
A|-0-0----0-0----0-0----3-5-3----0-0--0-0--0-0--0-0--------------|
E|-0-0----0-0----0-0----3-5------0-0--0-0--0-0--0-0--------------|

| /  slide up
| \  slide down
| h  hammer-on
| p  pull-off
| ~  vibrato
| +  harmonic
| x  Mute note
 
 
10 Years - Waking Up Tab :: indexed at Ultimate Guitar.
Waking Up tabs @ 911Tabs

About the artist behind Waking Up Tab:

10 Years is an American alternative metal band, formed in Knoxville, Tennessee in 2000.

Indexed at Wikipedia.

Show us your talent, perform Waking Up Tab!

Here you can post a video or audio performance. Tell me more ...
Where can we find your performance? Tell me more ...
Your comment:
Please, log in to post your performance.