Artists by letter: A B C D E F G H I J K L M N O P Q R S T U V W X Y Z 0-9

 
I Caught Myself Tab
Paramore
I Caught Myself
Twilight
2008
Submitted by: [email protected]

Key: E

Tuning: Standard EADGBe

Chords used:
A -   x02220
B -   x24442
C#m - x46654
E -   022100
F#m - 244222


Intro:

Josh: Lead
e|-7---7----4-----4-----|
B|-------5----5-----5---|
G|---6----------6-----6-|
D|----------------------| x32
A|----------------------|
E|----------------------|


Hunter: Rhythm, enter at 0:08
e|-------2-|--------5------4------2------|
B|-0-2-0---|--0-2-0----0------0------0---|
G|---------|-------------1------1------1-|
D|---------|-----------------------------| x4
A|---------|-----------------------------|
E|---------|-----------------------------|
     x2

Jeremy: Bass enter at 0:15, x2
         A                C#m               E
G|-----------------|-6-6-6-6-6-6-6-|-------------------|
D|-2/7-7-7-7-7-7-7-|---------------|-2-2-2-2-2-2-2-2-2-|
A|-----------------|---------------|-------------------|
E|-----------------|---------------|-------------------|

         A                F#m               E
G|-----------------|---------------|-------------------|
D|-2/7-7-7-7-7-7-7-|-4-4-4-4-4-4-4-|-2-2-2-2-2-2-2-2-2-|
A|-----------------|---------------|-------------------|
E|-----------------|---------------|-------------------|


Verse 1:
A
Don't you Youre
pushing and
pulling me down to
But I dont know what I
A
  Now when I caught myself
I had to stop myself
C#m
  Im saying something that
E
  I should have never thought
A
  Now when I caught myself
I had to stop myself
F#m
  Im saying something that
E
  I should have never
thought of


Hunter: While doing Verse 1 and Refrain
e|-16--------16--------19----19----|
B|----17--------17--------------17-|
G|-------18--------18-----18-------|
D|---------------------------------| x16
A|---------------------------------|
E|---------------------------------|


Refrain:
A
you, oh you, Youre pushing and
               C#m
and pulling me down too
    E                  A
But I dont know what I want
                      F#m E
No I dont know what I want


Chorus:
    A
You got it you got it
Some kind of magic
   C#m
Hypnotic hypnotic
      E
Youre leaving
me breathless
  A
I hate this
I hate this
Youre not the
        F#m
one I believe in
     E
With God as my witness


Post Chorus:

Hunter:
e|-16--------16--------19----19----|
B|----17--------17--------------17-|
G|-------18--------18-----18-------|
D|---------------------------------| x4
A|---------------------------------|
E|---------------------------------|


(Repeat Verse 1 and Refrain)


Interlude:

Hunter: A--C#m-E--A--F#m-E(hold)


Josh:
         A                 C#m               E
e|-4-5-4-0-2-2-2-2-|-4-5-4-0---------|-----------------|
B|-----------------|---------0-0-0-0-|-----------------|
G|-----------------|-----------------|-2-2-2-2-1-1-1-1-|
D|-----------------|-----------------|-----------------|
A|-----------------|-----------------|-----------------|
E|-----------------|-----------------|-----------------|

         A                 F#m         E
e|-4-5-4-0-2-2-2-2-|-4-5-4-0---------|---|
B|-----------------|---------0-0-0-0-|-0-|
G|-----------------|-----------------|---|
D|-----------------|-----------------|---|
A|-----------------|-----------------|---|
E|-----------------|-----------------|---|

Bridge: Bass and guitar 2 only
A                  A
  Dont know what I want
               A
But I know its not you
                            A
Keep pushing and pulling me down
                           A
But I know in my heart its not you


Josh:
       A          A
e|-4-5-4-0-2-|-4-5-4-0---|
B|-----------|---------0-|
G|-----------|-----------|
D|-----------|-----------| x2
A|-----------|-----------|
E|-----------|-----------|


Interlude:

Hunter: A--C#m-E--A--F#m-E


Josh:
e|-16--------16--------19----19----|-12-12-12-12-12-12-12-12---0-0-0-0-0-0-0-|
B|----17--------17--------------17-|-----------------------------------------|
G|-------18--------18-----18-------|-----------------------------------------|
D|---------------------------------|-----------------------------------------|
A|---------------------------------|-----------------------------------------|
E|---------------------------------|-----------------------------------------|
               x6


Verse 2:
E
  Now when I caught myself
F#m
  I had to stop myself
C#m
  Im saying something that
A
  I should have never thought
E
  Now when I caught myself
F#m
  I had to stop myself
C#m
  Im saying something that
  B
  I should have never
thought of


Outro:
E
You I knew
  F#m
I know in my
              C#m
heart its not you
           A
I knew but now I
            E
know what I want
  F#m    C#m
I want I want
   B
oh no I should
have never thought
 
 
Paramore - I Caught Myself Tab :: indexed at Ultimate Guitar.
I Caught Myself tabs @ 911Tabs

About the artist behind I Caught Myself Tab:

Paramore (IPA: /'pærəmɔər/) is an American rock band that formed in Franklin, Tennessee in 2004 consisting of Hayley Williams (lead vocals/keyboard), Josh Farro (lead guitar/backing vocals), Jeremy Davis (bass guitar), and Zac Farro (drums). The group released their debut album All We Know Is Falling in 2005, and their second album Riot! in 2007, which was certified gold in the US and the UK.

Indexed at Wikipedia.

Show us your talent, perform I Caught Myself Tab!

Here you can post a video or audio performance. Tell me more ...
Where can we find your performance? Tell me more ...
Your comment:
Please, log in to post your performance.