Artists by letter: A B C D E F G H I J K L M N O P Q R S T U V W X Y Z 0-9

 
Ill Sue Ya Tab
-------------------------------------------------------------------------------
			     I'LL SUE YA - Weird Al Yankovic
-------------------------------------------------------------------------------
Tabbed by: ironmanben
Email: [email protected]

Tuning: e B G D A D

intro:
e|---------------------------------------------------------------------------|
B|---------------------------------------------------------------------------|
G|-7-----7-----7-------7-----7-----5-----5-----5-------5-----5-----0-----0---|
D|-0-0-0-0-0-0-0-0-0-0-0-0-0-0-0-0-0-0-0-0-0-0-0-0-0-0-0-0-0-0-0-0-0-0-0-0-0-|
A|---------------------------------------------------------------------------|
D|---------------------------------------------------------------------------|

e|---------------------------------------------------|
B|---------------------------------------------------|
G|---0-------0-----0-----2-----2-----2-----5-5-5-5-2-|
D|-0-0-0-0-0-0-0-0-0-0-0-0-0-0-0-0-0-0-0-0-0-0-0-0-0-|
A|---------------------------------------------------|
D|---------------------------------------------------|


riff 1:
e|-------------------------|-------------------------|----|
B|-------------------------|-------------------------|----|
G|-------------------------|-------------------------|----|
D|-------------------------|-----------------5-6-5-3-|-0~-|
A|-5-----3p0-5-----3p0-3-5-|-5-----3p0-5-----5-6-5-3-|-0~-|
D|---0-0-------0-0---------|---0-0-------0-0-5-6-5-3-|-0~-|


verse part 1 (with wah pedal):
e|-----------------------------------|
B|------------------------------6--8-|
G|------------------------------5--7-|
D|-----xxx-5^----------xxxxxxxx------|
A|-3-5-xxx----5--0-3-5-xxxxxxxx------|
D|-----xxx-------------xxxxxxxx------|

verse part 2 (with wah pedal):
e|--------------------------------------|
B|--------------------------------------|
G|--------------------------------------|
D|-----xxx-5^----------xxxxxxxx---------|
A|-3-5-xxx----5--0-3-5-xxxxxxxx---------|
D|-----xxx-------------xxxxxxxx-5/6-5-3-|


pre-chorus:
e|--------------------------------------------|
B|--------------------------------------------|
G|--------------------------------------------|
D|--------10----------9----------8------------|
A|--------x-----------x----------x------------|
D|-0-0--0-10---0-0--0-9---0-0--0-8----5/6-5-3-|

e|----------------------------------------------|
B|----------------------------------------------|
G|----------------------------------------------|
D|--------10----------9----------8----------3-3-|
A|--------x-----------x----------x--------------|
D|-0-0--0-10---0-0--0-9---0-0--0-8----5/6-5-----|


chorus:
e|-------------------------|-------------------------|
B|-------------------------|-------------------------|
G|-------------------------|-------------------------|
D|-------------------------|-----------------5-6-5-3-|
A|-5-----3p0-5-----3p0-3-5-|-5-----3p0-5-----5-6-5-3-|
D|---0-0-------0-0---------|---0-0-------0-0-5-6-5-3-|


post-chorus:
e|----------------------------|----------------------------|---------------|
B|----------------------------|----------------------------|---------------|
G|----------------------------|----------------------------|---------------|
D|----------------------------|----------------------------|---------------|
A|---3-2-0-5----------3p0-3-5-|---3-2-0-5----------3p0-3-5-|---3-2-0-5-----|
D|-0---------0-3-0--0---------|-0---------3-2-0--0---------|-0---------0-3-|

e|--------------|---------------------|
B|--------------|---------------------|
G|--------------|------------------5~-|
D|--------------|------------------5~-|
A|------3p0-3-5-|---3-2-0-5--------3~-|
D|-0--0---------|-0---------0-3-0-----|


post-chorus 2:
 | x3                      | x1                            |
e|-------------------------|-------------------------------|
B|--------------------xxxx-|-------------------------------|
G|--------------------xxxx-|-------------------------------|
D|--------------------xxxx-|----------------5-6-5-3-0--(0)-|
A|-5------3----55---3------|-5------3----55-5-6-5-3-0--(0)-|
D|---0--0----0----0--------|---0--0----0----5-6-5-3-0--(0)-|


bridge:
e|----------------------------|
B|----------------------------|
G|-7-------10-----------------|
D|-7-------10-------5---------|
A|-5-------8--------5---------|
D|---------0--------5-------8-|


chorus 2:
e|-----------------------|
B|-----------------------|
G|-----------------------|
D|-----------------------|
A|-5-----3p0-5-----3-5---|
D|---0-0-------0-0-----0-|


post-chorus 3:
e|--------------------------------------------|
B|--------------------------------------------|
G|--------------------------------------------|
D|--------10----------9----------8------------|
A|--------x-----------x----------x------------|
D|-0-0--0-10---0-0--0-9---0-0--0-8----5/6-5-3-|
-|(guitar 2)                                  |
e|--------------------------------------------|
B|--------13----------12---------11-----------|
G|--------15^(17)-----14^(16)----13^(15)------|
D|--------------------------------------------|
A|--------------------------------------------|
D|--------------------------------------------|

e|----------------------------------------------|
B|----------------------------------------------|
G|----------------------------------------------|
D|--------10----------9----------8----------3-3-|
A|--------x-----------x----------x--------------|
D|-0-0--0-10---0-0--0-9---0-0--0-8----5/6-5-----|
-|(guitar 2)                                    |
e|----------------------------------------------|
B|--------13----------12---------11-------------|
G|--------15^(17)-----14^(16)----13^(15)--------|
D|----------------------------------------------|
A|----------------------------------------------|
D|----------------------------------------------|

guitar solo/outro:
e|------------------------------------------------------------------------|
B|-15-----15-----15-----15-----15-----15-----15-----15-----15-----15------|
G|-17^(19)17^(19)17^(19)17^(19)17^(19)17^(19)17^(19)17^(19)17^(19)17^(19)-
D|------------------------------------------------------------------------|
A|------------------------------------------------------------------------|
D|------------------------------------------------------------------------|
-|
e|----------------------------------------------------------------22^(23)-|
B|------------------------------------------------------------------------|
G|------------------------------------------------------------------------|
D|------------------------------------------------------------------------|
A|------------------------------------------------------------------------|
D|------------------------------------------------------------------------|

e|--------------------------------------------|
B|-15-----15-----15-----15-----15-----15------|
G|-17^(19)17^(19)17^(19)17^(19)17^(19)17^(19)-|
D|--------------------------------------------|
A|--------------------------------------------|
D|--------------------------------------------|
-|                                            |
e|---------------22^(23)22^(23)---------------|
B|--------------------------------------------|
G|--------------------------------------------|
D|--------------------------------------------|
A|--------------------------------------------|
D|--------------------------------------------|

Order:
intro x1
riff 1 x2
verse part 1 x3
verse part 2 x1
verse part 1 x3
verse part 2 x1
pre-chorus x1
chorus x2
post-chorus x1
verse part 1 x3
verse part 2 x1
verse part 1 x3
verse part 2 x1
pre-chorus x1
chorus x2
post chorus 2 x1
bridge x1
chorus 2 x4
post chorus 3 x1
guitar solo x4

| /  slide up
| \  slide down
| h  hammer-on
| p  pull-off
| ~  vibrato
| +  harmonic
| x  Mute note
===============================================================================
 
 
Weird Al Yankovic - Ill Sue Ya Tab :: indexed at Ultimate Guitar.
Ill Sue Ya tabs @ 911Tabs

Quick tip, so you can enjoy Ill Sue Ya Tab even more:

Try out the AutoScroller option ... It scrolls the page for you, so you can totally focus on nailing that solo. You can choose among different speeds using your mouse or your keyboard (keys 0, 1, 2 and 3).

Show us your talent, perform Ill Sue Ya Tab!

Here you can post a video or audio performance. Tell me more ...
Where can we find your performance? Tell me more ...
Your comment:
Please, log in to post your performance.