Artists by letter: A B C D E F G H I J K L M N O P Q R S T U V W X Y Z 0-9

 
Telstar Tab
-------------------------------------------------------------------------------
			     TELSTAR - VENTURES
-------------------------------------------------------------------------------


Tabbed by: fishyfish235
Email: [email protected]ive.com

Tuning: Standard

Tab is based on the Live in Japan '65 Version of the Song

The Original version of the song had the verse played by the organ.  If you
want to play the original version of the song, completely disregard the 
verses.  Only play the Choruses, the intro, and the ending.

INTRO:

e|---2----2----2----3----4----5----|
B|---2----2----2----3----4----5----|
G|---3~---3~---3~---4~---5~---6~---|		Vibrate the entire
D|---4~---4~---4~---5~---6~---7~---|			Chord
A|---4----4----4----5----6----7----|
E|---2----2----2----3----4----5----|

VERSE:

e|------------------------------------------------0~--0-0-0-0H2--0--|
B|-----------------3--2-0---0~-----3--2-0---0-----------------------|
G|----2~------------------2---------------2------------------------2|
D|2-2-----2-4~--2----------------2--------------2-------------------|
A|------------------------------------------------------------------|
E|------------------------------------------------------------------|

e|-0--------------------------------------------|
B|---3-2~----2-0-2~-2-2H3-2-0---0~-0-0H2-0------|
G|----------------------------2------------2-1--|
D|-------3-4------------------------------------|
A|----------------------------------------------|
E|----------------------------------------------|

CHORUS:

e|-12-12-12-12-14-12-----------------0-------------------------------|
B|--------------------10-12-14-12-14-----10-12-14-14-12-14-15-14--14-|
G|-------------------------------------------------------------------|
D|-------------------------------------------------------------------|
A|-------------------------------------------------------------------|
E|-------------------------------------------------------------------|

e|----------------------12-12-12-12-14-12------------------0---------|
B|12-10-12-14-12--14-15---------------------10-12-14-12-14-----10-12-|
G|-------------------------------------------------------------------|
D|-------------------------------------------------------------------|
A|-------------------------------------------------------------------|
E|-------------------------------------------------------------------|

e|------------------0-4-0-10-|
B|14-14-12-14-15-14----------|
G|---------------------------|
D|---------------------------|
A|---------------------------|
E|---------------------------|

VERSE:

e|------------------------------------------------0~--0-0-0-0H2--0--|
B|-----------------3--2-0---0~-----3--2-0---0-----------------------|
G|----2~------------------2---------------2------------------------2|
D|2-2-----2-4~--2----------------2--------------2-------------------|
A|------------------------------------------------------------------|
E|------------------------------------------------------------------|

e|-0--------------------------------------------|
B|---3-2~----2-0-2~-2-2H3-2-0---0~-0-0H2-0------|
G|----------------------------2------------2-1--|
D|-------3-4------------------------------------|
A|----------------------------------------------|
E|----------------------------------------------|

CHORUS:

e|-12-12-12-12-14-12-----------------0-------------------------------|
B|--------------------10-12-14-12-14-----10-12-14-14-12-14-15-14--14-|
G|-------------------------------------------------------------------|
D|-------------------------------------------------------------------|
A|-------------------------------------------------------------------|
E|-------------------------------------------------------------------|

e|---------------0-4-0-10--|
B|12-10-12-14-12-----------|
G|-------------------------|
D|-------------------------|
A|-------------------------|
E|-------------------------|

INTERLUDE:

e|------0--1--2--3--4----|
B|------2--3--4--5--6----|
G|-2----2--3--4--5--6----|
D|------2--3--4--5--6----|
A|------0--1--2--3--4----|
E|------0--1--2--3--4----|

VERSE:

e|-----------------3--2-0---0~-----3--2-0---0-----5~--5-5-5-5H7--5--|
B|----3~------------------3---------------3------------------------3|
G|--------2-4---2~---------------2--------------2-------------------|
D|------------------------------------------------------------------|
A|------------------------------------------------------------------|
E|------------------------------------------------------------------|

e|-5-3-2~----2-0-2~-2-2H3-2-0---0~-0-0H2-0-------|
B|----------------------------3------------3-2-3-|
G|-------3-4-------------------------------------|
D|-----------------------------------------------|
A|-----------------------------------------------|
E|-----------------------------------------------|

ENDING:

e|---10-10-10-10-10-10-10-10-10-10---2---5---10-----10-------------|
B|---12-12-12-12-12-12-12-12-12-12---3---7---12-----12---12--------|
G|---12-12-12-12-12-12-12-12-12-12---2---7---12-----12---12---12---|
D|---11-11-11-11-11-11-11-11-11-11---0---7---11-----11---11---11---|
A|-------------------------------------------------------10---10---|
E|------------------------------------------------------------10---|


************************************

| /   slide up
| \   slide down
| h   hammer-on
| p   pull-off
| ~   vibrato
| +   harmonic
| x   Mute note
| b   Bend
| pb  Pre-bend
| br  Bend release
| pbr Pre-bend release
| brb Bend release bend

************************************
 
 
Ventures - Telstar Tab :: indexed at Ultimate Guitar.
Telstar tabs @ 911Tabs

About the artist behind Telstar Tab:

The Ventures are an American instrumental rock band formed in 1958, by Don Wilson and Bob Bogle, two Tacoma, Washington masonry workers. They have also contributed to the surf music genre, though they are not strictly a surf band. In 2008, they were inducted into the Rock and Roll Hall of Fame. [1]

Indexed at Wikipedia.

Show us your talent, perform Telstar Tab!

Here you can post a video or audio performance. Tell me more ...
Where can we find your performance? Tell me more ...
Your comment:
Please, log in to post your performance.