Artists by letter: A B C D E F G H I J K L M N O P Q R S T U V W X Y Z 0-9

 
Pressure Tab
Pressure - Paramore, tabbed by me have been looking thorugh some acoustic footage and this 
what was made out of it! enjoy

=INTRO=

Intro (Rythm Guitar)
e|-------------------------------------------------------------------|
B|-------------------------------------------------------------------|
G|---7--7-7-7-7-7----7--7-7-7-7-7----7--7-7-7-7-7----7--7-7-7-7-7----|
D|---x--x-x-x-x-x----0--0-0-0-0-0----7--7-7-7-7-7----0--0-0-0-0-0----| x2
A|---9--9-9-9-9-9----0--0-0-0-0-0----5--5-5-5-5-5----0--0-0-0-0-0----|
D|---9--9-9-9-9-9----0--0-0-0-0-0----5--5-5-5-5-5----0--0-0-0-0-0----|

Intro (Lead Guitar)
e|-------------------------------------------------------------------|
B|-------------------------------------------------------------------|
G|11--11-11-/-9-9-9-14--14-14/11-11-11--11--11-11/9-9-9--6--6-6\7-7-7|
D|-x---x--x---x-x-x-x---x--x--x--x---x--x---x--x--x-x-x--x--x-x-x-x-x| x2
A|-9---9-9-/-7-7-7-12--12-12/9--9---9--9---9--9/-7-7-7--4--4-4\5-5-5|
D|-------------------------------------------------------------------|

=VERSE=

Verse part 1 (Rhythm Guitar)
e|-------------------------------------|
B|-------------------------------------|
G|-------------------------------------|
D|----9-9--9/5-5-5/0-0-0--4-4--4\------|
A|----9-9--9/5-5-5/0-0-0--4-4--4\-(2x)-|
D|----9-9--9/5-5-5/0-0-0--4-4--4\------|
      . .    . .   . .    . .

Verse part 2 (Rythm Guitar)

e|-----------------------------------------------------------|
B|-----------------------------------------------------------|
G|-----------------------------------------------------------|
D|-999-99/555-55-000-00-444-44\999-99/555-55-000-00-44444444-|
A|-999-99/555-55-000-00-444-44\999-99/555-55-000-00-44444444-|
D|-999-99/555-55-000-00-444-44\999-99/555-55-000-00-44444444-|
                                                    .....

Verse part 2 (Lead Guitar, comes in when rythm start playing part 2 of verse)
e|---------------------------------------5------------|
B|-7-7-7-77--5-5-5-55--7-7-7-77-5-5-------------------|
G|-7-7-7-77--7-7-7-77--7-7-7-77-6-6--6h7---(7)--------|
D|----------------------------------------------------|
A|----------------------------------------------------|
D|----------------------------------------------------|

=CHORUS=

Chorus (Rythm Guitar)

e|-------------------------------------------------------------------------|
B|-------------------------------------------------------------------------|
G|---------------------------------11b-------------------------------------|
D|-77777777-77777777-77777777-7777--x---77777777-77777777-77777777-7777----|
A|-55555555-00000000-44444444-5555--9b--55555555-00000000-44444444-5555-2x-|
D|-55555555-00000000-44444444-5555------55555555-00000000-44444444-5555----|

Chorus (Lead Guitar)

part 1 / 3                                          (or just bend 14)
e|--------17---------------17--------------17-----------14h15p14--|
B|----15-----15--15----15----15--15----14---------15--------------|
G|--16--16-----16----14--14----14----14--14----16----16-----------|
D|----------------------------------------------------------------|
A|----------------------------------------------------------------|
D|----------------------------------------------------------------|
Part 2
Play part 1 after this part!
e|--------17---------------17--------------17--------17-----------|
B|----15-----15--15----15----15--15----14--------15-----15--15----|
G|--16--16-----16----14--14----14----14--14----16--16-----16------|
D|----------------------------------------------------------------|
A|----------------------------------------------------------------|
D|----------------------------------------------------------------|


=BRIDGE=
Clean Bridge (Lead Guitar)
e|--------9----------------9-----------------9----------------9---------|
B|---10-----10---10---10-----10---10----10-----10---10---10-----10---10-|
G|------7------7---------7------7----------7------7---------7------7----|
D|-9----------------9-----------------0---------------------------------| X4
A|-----------------------------------------------------9----------------|
D|----------------------------------------------------------------------|
Before chorus
e|--------9----------------9----------|
B|---10-----10---10---10-----10---10--|
G|------7------7---------7------7-----|
D|-9----------------9-----------------|
A|------------------------------------|
D|------------------------------------|

Rythm Guitar
Plays the same chords as the verse!

The Order:
Intro
Verse
Verse2
Chorus
Verse
Verse2
Chorus
Slightly changed intro (not hard to figure out!)
Bridge
Chorus

| \ slide up
| /  slide down
| h  hammer on
| ^  bend note
| .  palm Mute
|()   ghost note
 
 
Paramore - Pressure Tab :: indexed at Ultimate Guitar.
Pressure tabs @ 911Tabs

About the artist behind Pressure Tab:

Paramore (IPA: /'pærəmɔər/) is an American rock band that formed in Franklin, Tennessee in 2004 consisting of Hayley Williams (lead vocals/keyboard), Josh Farro (lead guitar/backing vocals), Jeremy Davis (bass guitar), and Zac Farro (drums). The group released their debut album All We Know Is Falling in 2005, and their second album Riot! in 2007, which was certified gold in the US and the UK.

Indexed at Wikipedia.

Show us your talent, perform Pressure Tab!

Here you can post a video or audio performance. Tell me more ...
Where can we find your performance? Tell me more ...
Your comment:
Please, log in to post your performance.